Oops, an error
Loading. Please wait.

Clavado En Un Bar Tab

version 2
version 2

Whole song

Interactive

by Maná
397 views 3 this week
no commentswrite comment
1 2 3 4 5
3 more votes to show rating
add to favorites
×
Save as Personal and add changes to this tab that will be seen only by you. Learn more ›
×
You can save this tab as Personal to edit and correct it or add notes. All changes will be seen only by you. Learn more »
save as personal
new!
launch autoscroll
font size
0
reset
how to read this tab
guitar tuner
backing track
0:00
0:00
Autoscroll
slow
fast
+/-
esc
set tempo
stop
Intro
e|-7--7--7--7--2--2--7--7--7--7--2--2--7--7--7--7--2--2-|
b|-7--7--7--7--2--2--7--7--7--7--2--2--7--7--7--7--2--2-|
g|-8--9--8--9--3--3--8--9--8--9--3--3--8--9--8--9--3--3-|
d|-9--9--9--9--4--4--9--9--9--9--4--4--9--9--9--9--4--4-|
a|-9--7--9--7--4--4--9--7--9--7--4--4--9--7--9--7--4--4-|
e|-7-----7-----2--2--7-----7-----2--2--7-----7-----2--2-|

e|-7--7--4-|
b|-7--7--4-|
g|-8--9--4-|
d|-9--9--6-|
a|-9--7--6-|
e|-7-----4-|
Verso
   B                    F#
Aqui me tiene bien clavado
e|-7-7--7--7-7--7--2-2--2--2-2--2-|
b|-7-7--7--7-7--7--2-2--2--2-2--2-|
g|-8-8--8--8-8--8--3-3--3--3-3--3-|
d|-9-9--9--9-9--9--4-4--4--4-4--4-|
a|--------------------------------|
e|--------------------------------|
Guitarra 2
e|----------|
b|--77/55/4-|
                              G#m                  E
Son tantas las penas en un bar Brindando por tu amor
e|-4-4--4--4-4--4--7-7--7--7-7--7-|
b|-4-4--4--4-4--4--7-7--7--7-7--7-|
g|-4-4--4--4-4--4--9-9--9--9-9--9-|
d|-6-6--6--6-6--6--9-9--9--9-9--9-|
a|--------------------------------|
e|--------------------------------|
Guitarra 2
e--------------|
B------------6-|
G----5-57-7---|

  B                      F#m
Aqui me tiene abandonado
e|-7-7--7--7-7--7--2-2--2--2-2--2-|
b|-7-7--7--7-7--7--2-2--2--2-2--2-|
g|-8-8--8--8-8--8--3-3--3--3-3--3-|
d|-9-9--9--9-9--9--4-4--4--4-4--4-|
a|--------------------------------|
e|--------------------------------|
Guitarra 2
e|----------|
b|--77/55/4-|

                            G#m                       E
Bebiendo tequila pa'olvidar Y sacudirme hacia el dolor
e|-4-4--4--4-4--4--7-7--7--7-7--7-|
b|-4-4--4--4-4--4--7-7--7--7-7--7-|
g|-4-4--4--4-4--4--9-9--9--9-9--9-|
d|-6-6--6--6-6--6--9-9--9--9-9--9-|
a|--------------------------------|
e|--------------------------------|
Guitarra 2
e--------------|
B------------6-|
G----5-57-7---|

B    F#        G#m
 Donde estas bendita?
e|-7-/-2-/-4------|
b|-7-/-2-/-4------|
g|-8-/-3-/-4------|
d|-9-/-4-/-6-xxxxx|
a|-9-/-4-/-6-xxxxx|
e|----------------|
B    E         F#
 Donde te has metido?
e|-7-/-7-/-2------|
b|-7-/-7-/-2------|
g|-8-/-9-/-3------|
d|-9-/-9-/-4-xxxxx|
a|-9-/-7-/-4-xxxxx|
e|----------------|
D#m               E
Abre un poco el corazón
e|--6---7--|
b|--7---7--|
g|--8---9--|
d|--8---9--|
a|--6---7--|
e|---------|
D#m           E
Deja amarte corazon
e|--6---7-----------|
b|--7---7-----------|
g|--8---9------9---9|
d|--8---9----9---9--|
a|--6---7--7--------|
e|------------------|
D#m           E      F#
Ven y sacame de este bar
e|--6---7777--2x22x22x22--|
b|--7---7777--2x22x22x22--|
g|--8---9999--3x33x33x33--|
d|--8---9999--4x44x44x44--|
a|--6---7777--4x44x44x44--|
e|------------------------|

CORO:
         B             D#m  F#  F
Estoy clavado, Estoy herido,
e|-7---------7--7--6--2---------2--2--1--|
b|-7---------7--7--7--2---------2--2--1--|
g|-8-xxxxxxx-8--8--8--3-xxxxxxx-3--3--2--|
d|-9-xxxxxxx-9--9--9--4-xxxxxxx-4--4--3--|
a|-9-xxxxxxx-9--9--9--4-xxxxxxx-4--4--3--|
e|---------------------------------------|
G#m                  E
Estoy ahogado en un bar
e|-4------------------7---------7--7--7--|
b|-4------------------7---------7--7--7--|
g|-4-xxxxxxx----------9-xxxxxxx-9--9--9--|
d|-6-xxxxxxx----------9-xxxxxxx-9--9--9--|
a|-6-xxxxxxx----------7-xxxxxxx-7--7--7--|
e|---------------------------------------|
       B               D#m    F# F
Desesperado, En el olvido amor,
e|-7---------7--7--6--2---------2--2--1--|
b|-7---------7--7--7--2---------2--2--1--|
g|-8-xxxxxxx-8--8--8--3-xxxxxxx-3--3--2--|
d|-9-xxxxxxx-9--9--9--4-xxxxxxx-4--4--3--|
a|-9-xxxxxxx-9--9--9--4-xxxxxxx-4--4--3--|
e|---------------------------------------|
G#m                  E
Estoy ahogado en un bar    Hey!
e|-4------------------7---------7--7--7--|
b|-4------------------7---------7--7--7--|
g|-4-xxxxxxx----------9-xxxxxxx-9--9--9--|
d|-6-xxxxxxx----------9-xxxxxxx-9--9--9--|
a|-6-xxxxxxx----------7-xxxxxxx-7--7--7--|
e|---------------------------------------|

e|-7--7--7--7--2--2--7--7--7--7--2--2--|
b|-7--7--7--7--2--2--7--7--7--7--2--2--|
g|-8--9--8--9--3--3--8--9--8--9--3--3--|
d|-9--9--9--9--4--4--9--9--9--9--4--4--|
a|-9--7--9--7--4--4--9--7--9--7--4--4--|
e|-7-----7-----2--2--7-----7-----2--2--|

Verso
  B                      F#
Se que te gustan demasiados
e|-7-7--7-7--7-7--7-7--2-2--2-2--2-2--2-2-|
b|-7-7--7-7--7-7--7-7--2-2--2-2--2-2--2-2-|
g|-8-8--8-8--8-8--8-8--3-3--3-3--3-3--3-3-|
d|-9-9--9-9--9-9--9-9--4-4--4-4--4-4--4-4-|
a|----------------------------------------|
e|----------------------------------------|

                         G#m
Que te pretende cantidad
                         E
Pero eso no es felicidad
e|-4-4--4-4--4-4--4-4--7-7--7-7--7-7--7-7-|
b|-4-4--4-4--4-4--4-4--7-7--7-7--7-7--7-7-|
g|-4-4--4-4--4-4--4-4--9-9--9-9--9-9--9-9-|
d|-6-6--6-6--6-6--6-6--9-9--9-9--9-9--9-9-|
a|----------------------------------------|
e|----------------------------------------|
   B                    F#
Y mi amor nunca se raja
e|-7-7--7-7--7-7--7-7--2-2--2-2--2-2--2-2-|
b|-7-7--7-7--7-7--7-7--2-2--2-2--2-2--2-2-|
g|-8-8--8-8--8-8--8-8--3-3--3-3--3-3--3-3-|
d|-9-9--9-9--9-9--9-9--4-4--4-4--4-4--4-4-|
a|----------------------------------------|
e|----------------------------------------|
                                     G#m
Y mi amor nunca jamas te va a fallar
           E
Nunca jamas
e|-4-4--4-4--4-4--4-4--7-7--7-7--7-7--7-7-|
b|-4-4--4-4--4-4--4-4--7-7--7-7--7-7--7-7-|
g|-4-4--4-4--4-4--4-4--9-9--9-9--9-9--9-9-|
d|-6-6--6-6--6-6--6-6--9-9--9-9--9-9--9-9-|
a|----------------------------------------|
e|----------------------------------------|

B    F#        G#m
 Donde estas bendita?
e|-7-/-2-/-4------|
b|-7-/-2-/-4------|
g|-8-/-3-/-4------|
d|-9-/-4-/-6-xxxxx|
a|-9-/-4-/-6-xxxxx|
e|----------------|
B    E         F#
 Donde te has metido?
e|-7-/-7-/-2------|
b|-7-/-7-/-2------|
g|-8-/-9-/-3------|
d|-9-/-9-/-4-xxxxx|
a|-9-/-7-/-4-xxxxx|
e|----------------|
D#m               E
Abre un poco el corazón
e|--6---7--|
b|--7---7--|
g|--8---9--|
d|--8---9--|
a|--6---7--|
e|---------|

D#m           E
Deja amarte corazon
e|--6---7-----------|
b|--7---7-----------|
g|--8---9------9---9|
d|--8---9----9---9--|
a|--6---7--7--------|
e|------------------|
D#m           E      F#
Ven y sacame de este bar
e|--6---7777--2x22x22x22--|
b|--7---7777--2x22x22x22--|
g|--8---9999--3x33x33x33--|
d|--8---9999--4x44x44x44--|
a|--6---7777--4x44x44x44--|
e|------------------------|

         B             D#m  F#  F
Estoy clavado, Estoy herido,
e|-7---------7--7--6--2---------2--2--1--|
b|-7---------7--7--7--2---------2--2--1--|
g|-8-xxxxxxx-8--8--8--3-xxxxxxx-3--3--2--|
d|-9-xxxxxxx-9--9--9--4-xxxxxxx-4--4--3--|
a|-9-xxxxxxx-9--9--9--4-xxxxxxx-4--4--3--|
e|---------------------------------------|
G#m                  E
Estoy ahogado en un bar
e|-4------------------7---------7--7--7--|
b|-4------------------7---------7--7--7--|
g|-4-xxxxxxx----------9-xxxxxxx-9--9--9--|
d|-6-xxxxxxx----------9-xxxxxxx-9--9--9--|
a|-6-xxxxxxx----------7-xxxxxxx-7--7--7--|
e|---------------------------------------|
       B               D#m    F# F
Desesperado, En el olvido amor,
e|-7---------7--7--6--2---------2--2--1--|
b|-7---------7--7--7--2---------2--2--1--|
g|-8-xxxxxxx-8--8--8--3-xxxxxxx-3--3--2--|
d|-9-xxxxxxx-9--9--9--4-xxxxxxx-4--4--3--|
a|-9-xxxxxxx-9--9--9--4-xxxxxxx-4--4--3--|
e|---------------------------------------|
G#m                  E
Estoy ahogado en un bar    Hey!
e|-4---------4--4--4--7---------7--7--7--|
b|-4---------4--4--4--7---------7--7--7--|
g|-4-xxxxxxx-4--4--4--9-xxxxxxx-9--9--9--|
d|-6-xxxxxxx-6--6--6--9-xxxxxxx-9--9--9--|
a|-6-xxxxxxx-6--6--6--7-xxxxxxx-7--7--7--|
e|---------------------------------------|

           B
Voy desesperado,
            F#
Voy en el olvido,
e|-7-7--7-7--7-7--7-7--2-2--2-2--2-2--1-1-|
b|-7-7--7-7--7-7--7-7--2-2--2-2--2-2--1-1-|
g|-8-8--8-8--8-8--8-8--3-3--3-3--3-3--2-2-|
d|-9-9--9-9--9-9--9-9--4-4--4-4--4-4--3-3-|
a|----------------------------------------|
e|----------------------------------------|
G#m                  E                  D#m
Estoy ahogado en un bar
e|-4-4--4-4--4-4--4-4--7-7--7-7--7-7--7-7--6-|
b|-4-4--4-4--4-4--4-4--7-7--7-7--7-7--7-7--7-|
g|-4-4--4-4--4-4--4-4--9-9--9-9--9-9--9-9--8-|
d|-6-6--6-6--6-6--6-6--9-9--9-9--9-9--9-9--8-|
a|-------------------------------------------|
e|-------------------------------------------|

BRIDGE
G#m               E
Dejate querer amor
e|-4----------0---|
b|-4----------0---|
g|-4----------1---|
d|-6----------2---|
a|-6----------2---|
e|----------------|
              B
Quiero ser tu todo
e|-2-------|
b|-4-------|
g|-4-------|
d|-4-------|
a|-2-------|
e|---------|
             D#m
Y tu corazon
e|-6---------6-6--|
b|-7---------7-7--|
g|-8---------8-8--|
d|-8---------8-8--|
a|-6---------6-6--|
e|----------------|
G#m                 E
Ven a rescatarme amor
e|-4----------0---|
b|-4----------0---|
g|-4----------1---|
d|-6----------2---|
a|-6----------2---|
e|----------------|

                  B
Yo quiero ser tu sol
e|-2-------|
b|-4-------|
g|-4-------|
d|-4-------|
a|-2-------|
e|---------|
                 F#m
Yo quiero ser tu mar    Oooohhh!
e|--2x22x22x22--|
b|--2x22x22x22--|
g|--3x33x33x33--|
d|--4x44x44x44--|
a|--4x44x44x44--|
e|--------------|

Solo
e|------------11------------11-12-14--12-11----|
b|----12--14--------12--14------------------14~|
g|-/11--11--11---/11--11--11-------------------|
d|---------------------------------------------|
a|---------------------------------------------|
e|---------------------------------------------|

e|--------------------|
b|--------------------|
g|-13/15-16-13-15-13~-|
d|--------------------|
a|--------------------|
e|--------------------|

e|-----------------1716--171614------------|
b|-----------141617------------171614------|
g|-----131416------------------------1614--|
d|-1416------------------------------------|
a|-----------------------------------------|
e|-----------------------------------------|

e|-171614-171614-171614-171614-171614-171614---------------------------|
b|-------------------------------------------171614-171614-12/14-12-11~|
g|---------------------------------------------------------------------|
d|---------------------------------------------------------------------|
a|---------------------------------------------------------------------|
e|---------------------------------------------------------------------|

e|----------------------------------------------------|
b|-12-14-12-11-12-14-12-11-12-14-12-12~-12-11-12-9/0--|
g|----------------------------------------------------|
d|----------------------------------------------------|
a|----------------------------------------------------|
e|----------------------------------------------------|

Coro
e|-7-7--7--7-7--7--2-2--2--2-2--2-|
b|-7-7--7--7-7--7--2-2--2--2-2--2-|
g|-8-8--8--8-8--8--3-3--3--3-3--3-|
d|-9-9--9--9-9--9--4-4--4--4-4--4-|
a|--------------------------------|
e|--------------------------------|
Guitarra 2
e|----------|
b|--77/55/4-|

e|-4-4--4--4-4--4--7-7--7--7-7--7-|
b|-4-4--4--4-4--4--7-7--7--7-7--7-|
g|-4-4--4--4-4--4--9-9--9--9-9--9-|
d|-6-6--6--6-6--6--9-9--9--9-9--9-|
a|--------------------------------|
e|--------------------------------|
Guitarra 2
e--------------|
B------------6-|
G----5-57-7---|
         B             D#m  F#  F
Estoy clavado, Estoy herido,
e|-7-7--7--7-7--7--2-2--2--2-2--2-|
b|-7-7--7--7-7--7--2-2--2--2-2--2-|
g|-8-8--8--8-8--8--3-3--3--3-3--3-|
d|-9-9--9--9-9--9--4-4--4--4-4--4-|
a|--------------------------------|
e|--------------------------------|
G#m                  E
Estoy ahogado en un bar
e|-4-4--4--4-4--4--7-7--7--7-7--7-|
b|-4-4--4--4-4--4--7-7--7--7-7--7-|
g|-4-4--4--4-4--4--9-9--9--9-9--9-|
d|-6-6--6--6-6--6--9-9--9--9-9--9-|
a|--------------------------------|
e|--------------------------------|
       B               D#m    F# F
Desesperado, En el olvido amor,
e|-7-7--7--7-7--7--2-2--2--2-2--2-|
b|-7-7--7--7-7--7--2-2--2--2-2--2-|
g|-8-8--8--8-8--8--3-3--3--3-3--3-|
d|-9-9--9--9-9--9--4-4--4--4-4--4-|
a|--------------------------------|
e|--------------------------------|
G#m                  E
Estoy ahogado en un bar    Hey!
e|-4-4--4--4-4--4--7-7--7--7-7--7-|
b|-4-4--4--4-4--4--7-7--7--7-7--7-|
g|-4-4--4--4-4--4--9-9--9--9-9--9-|
d|-6-6--6--6-6--6--9-9--9--9-9--9-|
a|--------------------------------|
e|--------------------------------|

         B             D#m  F#  F
Estoy clavado, Estoy herido,
e|-7---------7--7--6--2---------2--2--1--|
b|-7---------7--7--7--2---------2--2--1--|
g|-8-xxxxxxx-8--8--8--3-xxxxxxx-3--3--2--|
d|-9-xxxxxxx-9--9--9--4-xxxxxxx-4--4--3--|
a|-9-xxxxxxx-9--9--9--4-xxxxxxx-4--4--3--|
e|---------------------------------------|
G#m                  E
Estoy ahogado en un bar
e|-4------------------7---------7--7--7--|
b|-4------------------7---------7--7--7--|
g|-4-xxxxxxx----------9-xxxxxxx-9--9--9--|
d|-6-xxxxxxx----------9-xxxxxxx-9--9--9--|
a|-6-xxxxxxx----------7-xxxxxxx-7--7--7--|
e|---------------------------------------|
       B               D#m    F# F
Desesperado, En el olvido amor,
e|-7---------7--7--6--2---------2--2--1--|
b|-7---------7--7--7--2---------2--2--1--|
g|-8-xxxxxxx-8--8--8--3-xxxxxxx-3--3--2--|
d|-9-xxxxxxx-9--9--9--4-xxxxxxx-4--4--3--|
a|-9-xxxxxxx-9--9--9--4-xxxxxxx-4--4--3--|
e|---------------------------------------|
G#m                  E
Estoy ahogado en un bar    Hey!
e|-4------------------7---------7--7--7--|
b|-4------------------7---------7--7--7--|
g|-4-xxxxxxx----------9-xxxxxxx-9--9--9--|
d|-6-xxxxxxx----------9-xxxxxxx-9--9--9--|
a|-6-xxxxxxx----------7-xxxxxxx-7--7--7--|
e|---------------------------------------|

e|-7--7--7--7--2--2--7--7--7--7--2--2--|
b|-7--7--7--7--2--2--7--7--7--7--2--2--|
g|-8--9--8--9--3--3--8--9--8--9--3--3--|
d|-9--9--9--9--4--4--9--9--9--9--4--4--|
a|-9--7--9--7--4--4--9--7--9--7--4--4--|
e|-7-----7-----2--2--7-----7-----2--2--|

e|-7--7--7--7--2--2--7--7--7--7--2--2--7--77-|
b|-7--7--7--7--2--2--7--7--7--7--2--2--7--77-|
g|-8--9--8--9--3--3--8--9--8--9--3--3--8--88-|
d|-9--9--9--9--4--4--9--9--9--9--4--4--9--99-|
a|-9--7--9--7--4--4--9--7--9--7--4--4--9--99-|
e|-7-----7-----2--2--7-----7-----2--2--7--77-|
Suggest correction
Give kudos to tab author, rate the tab!
1 2 3 4 5
comments
print report bad tab
guest
Wanna post a correction for this tab? Suggest correction