Oops, an error
Loading. Please wait.

Clavado En Un Bar Tab

version 3
version 3

Whole song

Interactive

by Maná
142 views 3 this week
no commentswrite comment
1 2 3 4 5
3 more votes to show rating
add to favorites
launch autoscroll
font size
0
reset
how to read this tab
guitar tuner
backing track
0:00
0:00
×
Best way to learn
"Clavado En Un Bar"
Autoscroll
slow
fast
+/-
esc
set tempo
stop
Solo de CLAVADO EN UN BAR
                                                                      Maná
Guitarra solista


     H        Q    E   E       E  T  S.  E   H         E
E||------------------------|----------------11~------------|
B||------------------------|--------12s-14-------------6S--|
G||-------------------10s--|--11---------------------------|
D||------------------------|-------------------------------|
A||------------------------|-------------------------------|
E||------------------------|-------------------------------|


   E  S  E  S  E.  S  E  S  E.       Q    E   S   S  H
--------------11-----12----12s---|--14-------12p-11------------|
--12----14-----------------------|------------------14~--------|
---------------------------------|-----------------------------|
---------------------------------|-----------------------------|
---------------------------------|-----------------------------|
---------------------------------|-----------------------------|


   Q.     Q     E.    E.      Q.      S   S  H
--------------------------|----------------------------|
---L-----------11h---12---|----------11h-12------------|
--------------------------|--13-------------13~--------|
--------------------------|----------------------------|
--------------------------|----------------------------|
--------------------------|----------------------------|


                                                     T
  Q.      S   S  S   S   S  S   S  S   E       Q     E   H         E
---------------------------11h-14-11S-14b--|---L----19--16--------16b--|
----------------11h-12h-14-----------------|---------------------------|
--L------11h-13----------------------------|---------------------------|
-------------------------------------------|---------------------------|
-------------------------------------------|---------------------------|
-------------------------------------------|---------------------------|


   S   S  S   S  S   S   S   S   S   S   S  Q     S
--16p-14--------------------------------------------|
---------16p-14-16p-14h-16p-14h-16p-14S-12----------|
-------------------------------------------13-----L-|
----------------------------------------------------|
----------------------------------------------------|
----------------------------------------------------|


   E.    S  S   S  E.    S  S   S  E.    S
--------16--------------16--------------16-|
-----------19p-16----------19p-16----------|
--18b-------------18b-------------18b------|
-------------------------------------------|
-------------------------------------------|
-------------------------------------------|


   S   S  E.    S  S   S  E    E    S  S  S  S
---------------16------------------------------|
--19p-16----------19p-16-----------------------|
---------18b-------------18b--18b--18-16-13-16-|
-----------------------------------------------|
-----------------------------------------------|
-----------------------------------------------|


   H          E   Q     E      E.   H         S  S  S  S  S
---------------------------|--------------------------------|
---------------------------|--------------------------------|
--18~---------L--18----16--|--15----------------16-18-16-15-|
---------------------------|-------16~----------------------|
---------------------------|--------------------------------|
---------------------------|--------------------------------|


   E.   S  S  S  E.   S  S  S  Q        H        E   E.   E.
------------------------------------|-------------------------|
------------------------------------|---------------11---12---|
--16---18-16-15-16---18-16-15-16----|---L---------------------|
------------------------------------|-------------------------|
------------------------------------|-------------------------|
------------------------------------|-------------------------|


                       1/ 1/ 1/ 1/1/
  E.    E.   Q      S  S   S   S   S  S
------------------------------------------|
--9b--------------------------------------|
-------13---13~-----L--LS-12S-11S-10S-9S--|
------------------------------------------|
------------------------------------------|
------------------------------------------|


  1/ 1/ 1/ 1/ 1/ 1/ 1/ 1/
  S   S   S   S   S   S   S   S   E  Q.
--------------------------------------------|-------||
--------------------------------------------|-------||
--8S--7S--6S--5S--4S--3S--2S--1S--0---------|-------||
--------------------------------------------|-------||
--------------------------------------------|-------||
--------------------------------------------|-------||


Duration Legend
---------------
W - whole
H - half
Q - quarter
E - 8th
S - 16th
T - 32nd
X - 64th
. - note dotted
|-n-|  - n-tuplets


Tablature Legend
----------------
L - tied note
x - dead note
g - grace note
(n) - ghost note
> - accentuded note
NH - natural harmonic
AH - artificial harmonic
TH - tapped harmonic
SH - semi harmonic
PH - pitch harmonic
h - hammer on
p - pull off
b - bend
br - bendRelease
pb - preBend
pbr - preBendRelease
brb - bendReleaseBend
n/ - tremolo bar dip
n - tremolo bar dive
-/n - tremolo bar Release up
/n - tremolo bar inverted dip
/n - tremolo bar return
-n - tremolo bar Release down
S - shift slide
s - legato slide
/ -  slide into from below or out of upwards
 -  slide into from above or out of downwards
~ - vibrato
W - wide vibrato
tr - trill
TP - tremolo picking
T - tapping
S - slap
P - pop
< - fade in
^ - brush up
v - brush down
Suggest correction
Give kudos to tab author, rate the tab!
1 2 3 4 5
comments
print report bad tab
guest
You may want to rate the tab now too:
select rating
Wanna post a correction for this tab? Suggest correction