Oops, an error
Loading. Please wait.

Clavado En Un Bar Tab

version 4
version 4

Whole song

Interactive

172 views 6 this week
no commentswrite comment
1 2 3 4 5
3 more votes to show rating
add to favorites
launch autoscroll
font size
0
reset
how to read this tab
guitar tuner
Autoscroll
slow
fast
+/-
esc
set tempo
stop
Help us to improve Ultimate-Guitar.com Take our survey!
×
INTRODUCCION

   B   E   B      E    F#      B   E   B      E     F#
e--7---7---7------7---2---2----7---7---7------7---2---2--
B--7---9---7------9---2---2----7---9---7------9---2---2--
G--8---9---8------9---3---3----8---9---8------9---3---3--
D--9---9---9------9---4---4----9---9---9------9---4---4--
A--9---7---9------7---4---4----9---7---9------7---4---4--
E--7---7---7------7---2---2----7---7---7------7---2---2--


   B   E   B      E     F#      B  E    G#m
e--7---7---7------7---2---2-----7--7-----4-
B--7---7---7------7---2---2-----7--9-----4-
G--8---9---8------9---3---3-----8--9-----4-
D--9---9---9------9---4---4-----9--9-----6-
A--9---7---9------7---4---4-----9--7-----6-
E--7---7---7------7---2---2-----7--7-----4-


B
Aquí me tiene bien clavado
F#
Son tantas las penas en un bar.
G#m                 E
Brindando por tu amor
B
Aquí me tiene abandonado
F#
Bebiendo tequila pa'olvidar
G#m                     E
Y sacudirme hacia el dolor
 B      F#     G#m
 Donde estas bendita
 B         E    G#m
 Donde te has metido
D#m                E
Abre un poco el corazón
D#m            E
Deja amarte corazón
D#m         E         F#
Ven y sácame de este bar.

INTRODUCCION

B
Se que te gustan demasiados
F#
Que te pretende cantidad
G#m                    E
Pero eso no es felicidad
B
Y mi amor nunca se raja
     F#                         G#m
Y mi amor nunca jamás te va a fallar

          E
Nunca jamás


CORO

         B
Estoy clavado,
         D#m
Estoy herido,
G#m                  E
 Estoy ahogado en un bar.
       B
Desesperado,
           D#m
En el olvido amor,
G#m                  E
 Estoy ahogado en un bar.    Hey!


B-C#m             E
  Déjate querer amor
                  B
Yo quiero ser tu todo
        D#m
Y tu corazón
B-C#m                E
  Ven a rescatarme amor
                  B
Yo quiero ser tu sol
                 F#
Yo quiero ser tu mar    Oooohhh!

SOLO

e-------7------9------11------7-----9-----11---12-12---14---12p11----
B--7-------7------7-------7------7-----7---------------------------14
G--------------------------------------------------------------------
D--------------------------------------------------------------------
A--------------------------------------------------------------------
E--------------------------------------------------------------------

e-----------------------|--------------------14--16---19-16--17-16-14
B-----------------------|------------14-16---------------------------
G--15-16--13---15-16-13-|--13-15-16----------------------------------
D-----------------------|--------------------------------------------
A-----------------------|--------------------------------------------
E-----------------------|--------------------------------------------

e--------------------------------------------------16-14---------16-14--
B----17-16-14---------------------------------16b--------17-16b-------17
G-----------------16-15-13-13------13-13-11-----------------------------
D------------------------------16---------------------------------------
A-----------------------------------------------------------------------
E-----------------------------------------------------------------------

e-----16-14---------16-14---------------------------------------
B-16b--------17-16b---------17-14b--14-12--11-------------------
G----------------------------------------------11---15-18-15----
D---------------------------------------------------------------
A---------------------------------------------------------------
E---------------------------------------------------------------

e----------------------------------------------------
B----------------------------------------------------
G-16b--18-16-15-16b--18-16-15-16b--15-16---15-13-13v-
D----------------------------------------------------
A----------------------------------------------------
B----------------------------------------------------

B            F#
Oh, oh, oh, oh, ooh, ooh,
        G#m            E
Oh, oh, ooh, oh, oh, oh,

B
Aquí me tienen embriagado
F#
Llorando de rabia en un bar.
G#m                E
Brindando por su amor

B
Aquí me tiene bien clavado
F#
Tomando tequila pa'olvidar todo
G#m                 E
No es justo amor
       B
Desesperado,
           D#m
En el olvido amor,
G#m                  E
 Estoy ahogado en un bar.
       B
Desesperado,
           D#m
En el olvido amor,
G#m                  E
 Estoy ahogado en un bar.


INTRODUCCION
Suggest correction
Give kudos to tab author, rate the tab!
1 2 3 4 5
comments
print report bad tab
guest
You may want to rate the tab now too:
select rating
Wanna post a correction for this tab? Suggest correction