Oops, an error
Loading. Please wait.

Como Diablos Tab

version 3
version 3

Interactive

25 views 1 this week
no commentswrite comment
1 2 3 4 5
3 more votes to show rating
add to favorites
launch autoscroll
font size
0
reset
how to read this tab
guitar tuner
Autoscroll
slow
fast
+/-
esc
set tempo
stop
Help us to improve Ultimate-Guitar.com Take our survey!
×
HOLA!!!! "como diablos" ES LA CANCIN QUE ME TOCA PONER EN ESTA
PAGINA ASI QUE ESPERO QUE LE GUSTE AHÍ LES VA:
===========================COMIENZO============================
INTRO:
(LO HACE LA ELECTRICA)
------------------------------|---------|4--2------|---------
------------------------------|5--4--2--|------5--4|---------
------1--------------1--------|---------|----------|------1--
2-2-2------1---2-2-2------1-2-|---------|----------|2-2-2----
--------2--------------2------|---------|----------|--------2
------------------------------|---------|----------|---------

1----------------|---------|4--2--5--4--|-5-5-|------------
2----------------|5--4--2--|------------|-5-5-|10---9---7-9
3-------1--------|---------|------------|-6-6-|9----9---8-9
4-2-2-2------1-2-|---------|------------|-7-7-|7----9---9-9
5---------2------|---------|------------|-7-7-|------------
6----------------|---------|------------|-5-5-|------------
(LUEGO ENPIEZA LOS DEMAS INSTRUMENTOS Y FHER RASGUE CON ESTOS
ACORDES EL INTRO)
(E G#m C#m B)

 VERSOS:
E         G#m              C#m         B
 Quedé ahogado entre tus muslos y tu miel
E         G#m         C#m           B
 Quedé dañado cuando te fuiste con él
E           G#m           C#m        B
 Quedé tan solo que he perdido la razón
E           G#m             A      C#m    B
 Caí en tu fuego y está quemando el corazón
(AHORA EL CORO)
CORO:

(EN EL CORO SOLO LA GUITARRA HACE UN (E) SOLAMENTE NO UN
[B] COMO LA OTRA TRANSCRIPCIÓN QUE PUSIERON EL QUE HACE UN [B]
ES EL BAJO OK)

E...
Como diablos te me metiste,
Me está estallando el corazón
1.-------------------4-----|
2.-------------------5-----|
3.-------------------6-----|
4.-------------------6-----|
5.---7--6--4---------4-----|
6.-------------7-----x-----|
C#m   A            E     B    A     C#m         B
  Como diablos te me perdiste, ay, ay, ay, ay, ay.

INTRO:(E G#m C#m B)X2

(CON LOS ACORDES DE LOS VERSOS)
Estoy perdido en las venas de esta ciudad
Extrañándote en la orilla de este bar,
Como una rosa que está en medio
De la mar
Me estás matando suavemente y
Sin piedad

E...
Como diablos te me metiste,
Me está estallando el corazón
1.-------------------4-----|
2.-------------------5-----|
3.-------------------6-----|
4.-------------------6-----|
5.---7--6--4---------4-----|
6.-------------7-----x-----|
C#m   A            E     B    A     C#m         B
  Como diablos te me perdiste, ay, ay, ay, ay, ay.
   (X2)

(AHORA VIENE EL SOLO)

SOLO:
1----------------|---------------|--------------------------
2----------------|---------------|12-9-12-12-9----9---------
311--11-9-9-11~~-|-11--11-9------|-------------11---11--11-9
4----------------|------------11-|--------------------------
5----------------|---------------|--------------------------
6----------------|---------------|--------------------------

1----------|-----------------|-----------------|------------
2----------|-----------------|--------------12-|12--12------
311-11~~-9-|-9-9-9-9-9-9-11--|-11-9-11-11---11-|11--11--11-9
4--------9-|-9-9-9-9-9-9-----|-----------------|------------
5---------7|-7-7-7-7-7-7-----|-----------------|------------
6----------|-----------------|-----------------|------------

C#m           A                   B
 Si quiero vivir  tendré que olvidar
            E   B    C#m
Y voy a borrar tu amor
             A               B
 Si quiero vivir tengo que olvidar

y he y he he oh.

--------------------------|----------|4--2-------|---------
--------------------------|-5--4--2--|------5--4-|---------
-----1-------------1------|----------|-----------|------1--
-2-2-----1--2-2-2-----1-2-|----------|-----------|2-2-2----
--------2------------2----|----------|-----------|--------2
--------------------------|----------|-----------|---------

E...
Como diablos te me metiste,
Me está estallando el corazón
1.-------------------4-----|
2.-------------------5-----|
3.-------------------6-----|
4.-------------------6-----|
5.---7--6--4---------4-----|
6.-------------7-----x-----|
C#m   A            E     B    A     C#m         B
  Como diablos te me perdiste, ay, ay, ay, ay, ay.

(CON LOS ACORDES DEL CORO)
Como como diablos como duele (HASTA EL FINAL)
===========================FIN=================================
BUENO AMIGOS ESO ES TODO YA LA PUEDEN TOCAR COMO SE DEBE POR QUE
ESTA "corregida Y explicada ESPERO QUE LES SALGA practiquen"
OK CHAÚ.

LEANDRO_TRANSCRIPCIONES@  18/01/06  14:02hs
 CHAÚ!!!!!
Suggest correction
Give kudos to tab author, rate the tab!
1 2 3 4 5
comments
print report bad tab
guest
You may want to rate the tab now too:
select rating
Wanna post a correction for this tab? Suggest correction