Oops, an error
Loading. Please wait.

Como Diablos Tab

version 4
version 4

Whole song

Interactive

by Maná
42 views 1 this week
no commentswrite comment
1 2 3 4 5
3 more votes to show rating
add to favorites
launch autoscroll
font size
0
reset
how to read this tab
guitar tuner
×
Best way to learn
"Como Diablos"
Autoscroll
slow
fast
+/-
esc
set tempo
stop
*Intro:

-Flauta:

1. ---------|----------|--------------|-------------|
2. ---------|----------|--------------|-------------|
3. ---9-8-6-|-9-8------|---9--9-8-8-6-|-13-11-14-13-|
4. -9-------|-----11-9-|-9------------|-------------|
5. ---------|----------|--------------|-------------|
6. ---------|----------|--------------|-------------|

-Gtrra. Eléctrica.
       
1. -----------------|---------------|-----------------|----------------|
2. -----------------|-------9-7-----|-----------------|-------9-7-10-9-|
3. -----------------|-9-8-6-----9-8-|-----------------|-9-8-6----------|
4. -------6---------|---------------|-------6---------|----------------|
5. -7-7-7-----6-(7)-|---------------|-7-7-7-----6-(7)-|----------------|
6. ---------7-------|---------------|---------7-------|----------------|
                    


-Solo de Armónica (C):

-      5... 4 (4) 5 4 (4) 4 3
     4 4 3 4 3 4 3
     4 (4) 4 3(3)* 3 2


-Gtrra. Eléctrica:

      A     A#sus2  E  B  E
1. -5-5-5-|----7----7--7--0--|
2. -5-5-5-|----10---9--7--0--|
3. -6-6-6-|----9----9--8--1--|
4. -7-7-7-|----7----9--9--2--|
5. -7-7-7-|----7----7--9--2--|
6. -5-5-5-|----7----7--7--0--|


  E      B              C#m           A                riff:
Quedé ahogado entre tus muslos y tu miel, [riff]    1. -----------|
  E      B         C#m            A                 2. ---5-4-2-4-|
quedé dañado cuando te fuiste con él, [riff]        3. -4---------|
  E        B             C#m        A               4. -----------|
quedé tan solo que he perdido la razón, [riff]      5. -----------|
 E         B               A       C#m  B           6. -----------|
caí en tu fuego y está quemando el corazón.


*Coro:

E  B             E    B 
Como diablos te me metiste,
 E            B            E
me está estallando el corazón,
1. -----------|
2. -----------|
3. -----------|
4. -2-1-------|
5. -----4-2-4-|
6. -----------|
C#m  A             E     B 
  como diablos te me perdiste,
A  C#m      B 
ay ay ay ay ay.


-Solo de Armónica:

-      5... 4 (4) 5 4 (4) 4 3
           4 4 (3) 4 3
           4 4 (3) 4 3
           4 (3)*


E         B             C#m               A
Estoy perdido entre las venas de esta cuidad, (riff)
E     B             C#m            A   
extrañándote en la orilla de este bar, (riff)
E         B               C#m          A 
como una rosa que está en medio de la mar, (riff) 
 E          B          A     C#m      B
me estás matando suavemente y sin piedad, oh no.


E  B             E    B 
Como diablos te me metiste,
 E            B            E
me está estallando el corazón,
1. -----------|
2. -----------|
3. -----------|
4. -2-1-------|
5. -----4-2-4-|
6. -----------|
C#m  A             E     B 
  como diablos te me perdiste,
A  C#m      B 
ay ay ay ay ay.


E  B             E    B 
Como diablos te me metiste,
 E            B            E
me está estallando el corazón,
1. -----------|
2. -----------|
3. -----------|
4. -2-1-------|
5. -----4-2-4-|
6. -----------|
C#m  A             E     B 
  como diablos te me perdiste,
A  C#m      B 
ay ay ay ay ay.


*Solo:

1. ---------------------|-----------------|--------------|
2. -9~-9p7---7-9~-9p7---|-12-9-11-12-9-11-|-9~-9p7---7-9-|
3. --------9----------9-|-----------------|--------9-----|
4. ---------------------|-----------------|--------------|
5. ---------------------|-----------------|--------------|
6. ---------------------|-----------------|--------------|

1. ------------|---------------|
2. -9~-9p7-5h7-|-9b-9b-9b-5-7~-|
3. ------------|---------------|
4. ------------|---------------|
5. ------------|---------------|
6. ------------|---------------|


 E           A                   B 
Si quiero vivir, tendré que olvidar,
            E  G#m C#m
y voy a borrar tu amor,
             A                  B
si quiero vivir, tengo que olvidar,
               E
iehh, iehh, eehooo.


-Flauta:

1. ---------|----------|--------------|-------------|
2. ---------|----------|--------------|-------------|
3. ---9-8-6-|-9-8------|---9--9-8-8-6-|-13-11-14-13-|
4. -9-------|-----11-9-|-9------------|-------------|
5. ---------|----------|--------------|-------------|
6. ---------|----------|--------------|-------------|

-Gtrra. Eléctrica.
       
1. -----------------|---------------|-----------------|----------------|
2. -----------------|-------9-7-----|-----------------|-------9-7-10-9-|
3. -----------------|-9-8-6-----9-8-|-----------------|-9-8-6----------|
4. -------6---------|---------------|-------6---------|----------------|
5. -7-7-7-----6-(7)-|---------------|-7-7-7-----6-(7)-|----------------|
6. ---------7-------|---------------|---------7-------|----------------|
                    


E  B             E    B 
Como diablos te me metiste,
 E            B            E
me está estallando el corazón,
1. -----------|
2. -----------|
3. -----------|
4. -2-1-------|
5. -----4-2-4-|
6. -----------|
C#m  A             E     B 
  como diablos te me perdiste,
A  C#m      B 
ay ay ay ay ay.


-Acompañado por un bajo:

 E
Como, como diablos,
       A        B
como duele, oh no no no,
 E
como, como diablos,
       A        B
como duele, oh no no no,
 E 
como, como diablos,
       A        B      E    
como duele, oh no no noouoo.
                           (Fade out)
Suggest correction
Give kudos to tab author, rate the tab!
1 2 3 4 5
comments
print report bad tab
guest
You may want to rate the tab now too:
select rating
Wanna post a correction for this tab? Suggest correction