Oops, an error
Loading. Please wait.

Como Te Deseo tab

version 2
version 2

Whole song

Interactive

by Maná
93 views 1 this week
no commentswrite comment
1 2 3 4 5
3 more votes to show rating
add to favorites
×
Save as Personal and add changes to this tab that will be seen only by you. Learn more ›
×
You can save this tab as Personal to edit and correct it or add notes. All changes will be seen only by you. Learn more »
launch autoscroll
font size
0
reset
how to read this tab
guitar tuner
edit
Autoscroll
slow
fast
+/-
esc
set tempo
stop
HOLA!!! "como te deceo" ES LA CANCIÓN QUE ME TOCA MANDAR A ESTA
PAGINA Y QUE EN REALIDAD ME GUSTA MUCHO ESTA CANCIÓN A LO
IGUAL QUE ESTA PAGINA Y COMO SIEMPRE SE LA VOY A DEJAR COMPLETA
OK AHI LES VA:
============================COMIENZO===========================
INTRO:(EMPIEZA LA BATERÍA)

Como yo te deceo  naranananana
como yo te adoro  naranananana

(A LA PARTE QUE SIGUE LA GUITARRA LO ACOMAPAÑA DE ESTA MANERA)
A5                D5      E/Eb
Como yo te deceo  naranananana
A5                D5      E/Eb
como yo te adoro  naranananana
(CON ESTE ARPEGIO ACOMPAÑA LA ELECTRICA EN LO ANTERIOR)
1.-----0-----------0--------0----------0--2-2---0-0----|
2.-------0--------------------0-----------3---3-0---0--|
3.---2-----2----2---------2-----2----2----2-----1------|
4.-2----------2---------2----------2------0-----2------|
5.-----------------------------------------------------|
6.-----------------------------------------------------|
  VERSOS:
(EN ESTE VERSO NO RASGUIDO SOLO LA GUITARRA ELECTRICA VA
HACIENDO ESTE ARPEGIO)
1.------------------0-----------------------0----|
2.------3-------------0-------------3---------0--|
3.---------4------------0---------2---2---------2|
4.---4-------------------------0-----------------|
5.-2-------------------------------------0-------|
6.--------------3--------------------------------|

Mariposas bailan en mi pecho
el calor no se dispersa amor
oye nena te quiero besar
de los pies a la cabeza amor

(AHORA ENTRAN TODOS LOS INSTRUMENTOS Y LA ELECTRICA VA HACIEDO
EL MISMO ARPEGIO DE FONDO Y FHER RASGUE CON LOS ARCORDES)
             Bm   G
Me prendes tanto
        D               A
soy un lobo hambriento
      Bm              G    D A
y la luna suelta el llanto
    Bm        G
en mis pupilas
    D      A
entras desnuda
         Bm             G    D
siento que me ahogo en tu sudor
A5
te deseo mas.
(AHORA EL CORO)
CORO:
 Bm      G   D    A
Te deseo, aha aha uh ha
 Bm          G   D  A
yo te quiero, ohh yeah
1.-x-2-2-x-3-3-x-x-0-0-|
2.--3-3-x-3-3-x-x-2-2-|
3.--2-2-x-4-4-x-x-2-2-|
Bm      G   D    A
Te deseo, aha aha uh ha
 Bm          G D A
yo te quiero.
1.-x-2-2-x-3-3-x-x-0-0-|
2.-x-3-3-x-3-3-x-x-2-2-|
3.-2-2-x-4-4-x-x-2-2-2-|
 (FIN DEL CORO.

1.------------------0-----------------------0----|
2.------3-------------0-------------3---------0--|
3.---------4------------0---------2---2---------2| X2
4.---4-------------------------0-----------------|
5.-2-------------------------------------0-------|
6.--------------3--------------------------------|

(LO QUE SIGUE CON LOS MISMOS ACORDES DEL VERSO)
Un tambor sono muy africano
ese ponpin ponpin de tu corazon.
Un tambor sono muy mexicano
ese ponpin ponpin de tu corazon.

Me prendes tanto
soy un lobo hambriento
y el calor no se dispersa
no se dispersa amor.

Te abrazo fuerte
no abras los ojos
mariposas bailan
en mi pecho amor.
te deseo mas!

CORO:
 Bm      G   D    A
Te deseo, aha aha uh ha
 Bm          G   D  A
yo te quiero, ohh yeah
1.-x-2-2-x-3-3-x-x-0-0-|
2.--3-3-x-3-3-x-x-2-2-|
3.--2-2-x-4-4-x-x-2-2-|
Bm      G   D    A
Te deseo, aha aha uh ha
 Bm          G D A
yo te quiero.
1.-x-2-2-x-3-3-x-x-0-0-|
2.-x-3-3-x-3-3-x-x-2-2-|
3.-2-2-x-4-4-x-x-2-2-2-|


1.------------------0-----------------------0----|
2.------3-------------0-------------3---------0--|
3.---------4------------0---------2---2---------2| X4
4.---4-------------------------0-----------------|
5.-2-------------------------------------0-------|
6.--------------3--------------------------------|

Como yo te deceo  naranananana
como yo te adoro  naranananana

(A LA PARTE QUE SIGUE LA GUITARRA LO ACOMAPAÑA DE ESTA MANERA)
A5                D5      E/Eb
Como yo te deceo  naranananana
A5                D5      E/Eb
como yo te adoro  naranananana
(CON ESTE ARPEGIO ACOMPAÑA LA ELECTRICA EN LO ANTERIOR)
1.-----0-----------0--------0----------0--2-2---0-0----|
2.-------0--------------------0-----------3---3-0---0--|
3.---2-----2----2---------2-----2----2----2-----1------|
4.-2----------2---------2----------2------0-----2------|
5.-----------------------------------------------------|
6.-----------------------------------------------------|

CORO:
 Bm      G   D    A
Te deseo, aha aha uh ha
 Bm          G   D  A
yo te quiero, ohh yeah
1.-x-2-2-x-3-3-x-x-0-0-|
2.--3-3-x-3-3-x-x-2-2-|
3.--2-2-x-4-4-x-x-2-2-|
Bm      G   D    A
Te deseo, aha aha uh ha
 Bm          G D A
yo te quiero.
1.-x-2-2-x-3-3-x-x-0-0-|
2.-x-3-3-x-3-3-x-x-2-2-|
3.-2-2-x-4-4-x-x-2-2-2-|

(Y ESTE ES EL FINAL)
(Bm G D A)
1.-7-7-7-7-7-7----------7-7-7-7-7-7---------|
2.-9-9-9-9-9-9-9-9-7-9--9-9-9-9-9-9-9-9-7-5-|
3.-------------9-9-8-9--------------9-9-8-6-|
4.------------------------------------------|
5.------------------------------------------|
6.------------------------------------------|

1.-7-7-7-7-7-7----------7-7-7-7-9-9---------|
2.-9-9-9-9-9-9-9-9-7-9--9-9-9-9-9-9-7-7-9---|
3.-------------9-9-8-9--------------8-8-9---|
4.------------------------------------------|
5.------------------------------------------|
6.------------------------------------------|
 (SE REPITE HASTA EL FINAL)
=============================FIN===============================
BUENO AMIGOS ESO ES TODO LO QUE LES DEJO DE ESTA CANCIÓN ESTA
SIMILAR A LA QUE ESTAN EL ESTA PAGINA POR QUE ES ASI COMO SE
PERO YO SE LA DEJE CORREGIDA EN LA PARTE DEL INTRO OK
"practiquen" OK CHAÚ.

 LEANDRO_TRANSCRIPCIONES@  17/01/06  15:13hs
  CHAÚ!!!!

            
            
Suggest correction
Creating personal tab
Creating personal tab
You can edit any tab online and save it as your Personal.

You can edit, replace or remove any tab part or add personal notes – all changes will be seen only by you.

Personal tabs can be accessed anytime from any device, even offline.
Learn more »
Give kudos to tab author, rate the tab!
1 2 3 4 5
comments
print report bad tab
guest
Wanna post a correction for this tab? Suggest correction