Oops, an error
Loading. Please wait.

Como Te Deseo Tab

version 3
version 3

Whole song

Interactive

34 views 1 this week
no commentswrite comment
1 2 3 4 5
3 more votes to show rating
add to favorites
launch autoscroll
font size
0
reset
how to read this tab
guitar tuner
Autoscroll
slow
fast
+/-
esc
set tempo
stop
Help us to improve Ultimate-Guitar.com Take our survey!
×
Intro:

::SIN TOCAR::

Como yo te deseo.
Na, na, na, na, na.
Como yo te adoro.
Na, na, na, na, na.

1. Como yo te deseo.
2. Como yo te adoro.
e-------0-----------0--|-------0-----------0--|
b----------0-----0-----|----------0-----0-----|
g-------------2--------|-------------2--------|
D----2-----------------|----2-----------------|
A?0--------------------|?0--------------------|
E----------------------|----------------------|

1. Na, na, na, na, na.
2. Na, na, na, na, na.
e-----------|-----------0--|
b--------0--|--------0-----|
g-----2-----|-----1--------|
D?-0--------|--2-----------|
A-----------|--------------|
E-----------|--------------|

::Tocen esto repetidamente durante estos versos::

e--------------|--------0--------|--------------|--------0--------|
b--------3-----|-----------0-----|--------3-----|-----------0-----|
g.----------4--|--------------0--|-----2-----2--|-----2--------2-.|
D.----4--------|-----0-----------|--0-----------|----------------.|
A?-2-----------|-----------------|--------------|--0--------------|
E--------------|--3--------------|--------------|-----------------|

Mariposas bailan en pecho, el calor no se dispersa amor.
Oye nena te quiero besar de los a la cabeza amor.
Me prendes tanto, soy un lobo hambriento y la luna suelta el llanto.
En mis pupilas entras desnuda siento que me ahogo en tu sudor, te deseo mas.

::Coro::
e--------------------|--------------------|-------------|---------------|
b--------------------|--------------------|--7-7---8-8--|--x-x?--5---5--|
g-----------7?-7-----|-----------7?-7-----|--7-7---7-7--|--x-x---6---6--|
D?-7?-7?-9--------9--|--7?-7?-9--------9--|--7-7---9-9--|--x-x---7---7--|
A--------------------|--------------------|-------------|---------------|
E--------------------|--------------------|-------------|---------------|
  PM---------------|   PM---------------|   PM--------|   PM----------|

Te deseo aha, aha, u ah.
Yo te quiero.
Te deseo aha, aha, u ah.
Yo te quiero.


::Interlude::
e--------------|--------0--------|--------------|--------0--------|
b--------3-----|-----------0-----|--------3-----|-----------0-----|
g-----------4--|--------------0--|-----2-----2--|-----2--------2--|
D-----4--------|-----0-----------|--0-----------|-----------------|
A?-2-----------|-----------------|--------------|--0--------------|
E--------------|--3--------------|--------------|-----------------|

e--------------|--------0--------|--------------|--------0--------|
b--------3-----|-----------0-----|--------3-----|-----------0-----|
g-----------4--|--------------0--|-----2-----2--|-----2--------2--|
D-----4--------|-----0-----------|--0-----------|-----------------|
A?-2-----------|-----------------|--------------|--0--------------|
E--------------|--3--------------|--------------|-----------------|


::SIN TOCAR(solamente percussion)::

Un tambor sono muy africano
Es el pompin, pompin de tu corazon.
Un tambor sono muy mexicano
Es el pompin, pompin de mi corazon.

::Toca esto con el verso::
e--------------|--------0--------|--------------|--------0--------|
b--------3-----|-----------0-----|--------3-----|-----------0-----|
g.----------4--|--------------0--|-----2-----2--|-----2--------2-.|
D.----4--------|-----0-----------|--0-----------|----------------.|
A?-2-----------|-----------------|--------------|--0--------------|
E--------------|--3--------------|--------------|-----------------|

M eprendes tanto, soy un lobo hambriento,
y el calor no se dispersa, no se dispersa amor.
Te abrazo fuerte, no abras los ojos.
Mariposas bailan en tu pecho amor, te deseo mas.

::Coro::

::Interlude::-->2 veces

1. Como yo te deseo.
2. Como yo te adoro.
e-------0-----------0--|-------0-----------0--|
b----------0-----0-----|----------0-----0-----|
g-------------2--------|-------------2--------|
D----2-----------------|----2-----------------|
A?0--------------------|?0--------------------|
E----------------------|----------------------|

1. Na, na, na, na, na.
2. Na, na, na, na, na.
e-----------|-----------0--|
b--------0--|--------0-----|
g-----2-----|-----1--------|
D?-0--------|--2-----------|
A-----------|--------------|
E-----------|--------------|

::Coro(Repeat and Fade)::
Suggest correction
Give kudos to tab author, rate the tab!
1 2 3 4 5
comments
print report bad tab
guest
You may want to rate the tab now too:
select rating
Wanna post a correction for this tab? Suggest correction