Oops, an error
Loading. Please wait.

Como Un Perro Enloquecido Tab

version 1
version 1

Whole song

Interactive

67 views 1 this week
no commentswrite comment
1 2 3 4 5
3 more votes to show rating
add to favorites
launch autoscroll
font size
0
reset
how to read this tab
guitar tuner
Autoscroll
slow
fast
+/-
esc
set tempo
stop
HOLA AMIGOS!!!! VOLVI CON ROLAS DEL CD "cuando los ángeles
lloran" QUE ES UNO DE MIS FAVORITOS DE MANÁ Y COMO LES PROMETI
EN OTRAS OCACIONES LES DEGUE QUE LES HIBA A DEJAR TODAS LAS
ROLAS DE TODOS LOS CD DE MANÁ Y ESTE TEMA SE LLAMA
"como un perro enloquesido" Y BIEN completa" ASI QUE AHI LES
VA:
============================COMIENZO===========================
INTRO:E B A B

(LA ELECTRICA HACE ESTO EN EL INTRO)
1.|-----12-12-|-----12-12-|-----12-12-|-----12-12--|
2.|-----12-12-|-----12-12-|-----12-12-|-----12-12--|
3.|-----------|-----------|-----------|------------|
4.|-----------|-----------|-----------|------------|
5.|-----------|-----------|-----------|------------|
6.|-----------|-----------|-----------|------------|

VERSOS:
E                        B
_Como un perro me has traido
A                     B
como un perro enloquesido
E                     B
quieres manicular mi vida
A                            B
me tienes bien tomada la medida.

E B A B (X2)
1.|-----12-12-|-----12-12-|-----12-12-|-----12-12--|
2.|-----12-12-|-----12-12-|-----12-12-|-----12-12--|
3.|-----------|-----------|-----------|------------|
4.|-----------|-----------|-----------|------------|
5.|-----------|-----------|-----------|------------|
6.|-----------|-----------|-----------|------------|
(EN EL SIGUIENTE VERSO LA ELECTRICA LO ACOMPAÑA ASI:
1.|-------------|-------------|-------------|-------------|
2.|-------------|-------------|-------------|-------------|
3.|-9-9-9-9-9-9-|-4-4-4-4-4-4-|-2-2-2-2-2-2-|-4-4-4-4-4-4-|
4.|-9-9-9-9-9-9-|-4-4-4-4-4-4-|-2-2-2-2-2-2-|-4-4-4-4-4-4-|
5.|-7-7-7-7-7-7-|-2-2-2-2-2-2-|-0-0-0-0-0-0-|-2-2-2-2-2-2-|
6.|-------------|-------------|-------------|-------------|

E                  B
Reconosco que me exitas
A                      B
pero te pasaste de pistola
E
me quieres encadenar
          B
a tus caprichos
A
encadenarme a tus pies
    B
tus faldas y a tu piel.
(AHORA EL CORO)
CORO:

(Y LA ELECTRICA DE ESTA FORMA DESPUES DE CADA FRASE DEL CORO)
1.|----0--------|----2--------|----0--------|----2--------|
2.|---0---------|---4---------|---2---------|---4---------|
3.|--1----------|--4----------|--2----------|--4----------|
4.|-2-----------|-4-----------|-2-----------|-4-----------|
5.|-------------|-------------|-------------|-------------|
6.|-------------|-------------|-------------|-------------|

E    B
Como un perro
A        B
me has traido
E    B       A B
enloquesido.     (X2)


E B A B (X2)
1.|-----12-12-|-----12-12-|-----12-12-|-----12-12--|
2.|-----12-12-|-----12-12-|-----12-12-|-----12-12--|
3.|-----------|-----------|-----------|------------|
4.|-----------|-----------|-----------|------------|
5.|-----------|-----------|-----------|------------|
6.|-----------|-----------|-----------|------------|

No se si soy un masoquista
o solo tu mascota favorita
pero siempre que te veo
me haces venir
venir,venir,venir,venir
como un perro
a tus pies.

CORO:

(Y LA ELECTRICA DE ESTA FORMA DESPUES DE CADA FRASE DEL CORO)
1.|----0--------|----2--------|----0--------|----2--------|
2.|---0---------|---4---------|---2---------|---4---------|
3.|--1----------|--4----------|--2----------|--4----------|
4.|-2-----------|-4-----------|-2-----------|-4-----------|
5.|-------------|-------------|-------------|-------------|
6.|-------------|-------------|-------------|-------------|

E    B
Como un perro
A        B
me has traido
E    B       A B
enloquesido.     (X2)

(AHORA EL SOLO)

SOLO:
1.|------------------------|-9----------------------|
2.|-----5-7-7v-5-7---0-5-7-|---b7r--------5-5-5-7-5-|
3.|---6--------------------|------------------------|
4.|------------------------|------------------------|
5.|------------------------|------------------------|
6.|------------------------|------------------------|

1.|--------------------|----------------------------|
2.|-7v--5----------5-5-|-4-5-12-(12)v---------------|
3.|-------6------------|----------------------------|
4.|--------------------|----------------------------|
5.|--------------------|----------------------------|
6.|--------------------|----------------------------|

1.|-11-11-12p11p9h11----------11-12|-/14-12-11-------------------|
2.|--------------------141414------|-----------14---141414-12----|
3.|--------------------------------|--------------------------14-|
4.|--------------------------------|-----------------------------|
5.|--------------------------------|-----------------------------|
6.|--------------------------------|-----------------------------|

1.|-----12----------|------9-12|14-12p9--16-12p9-12-|------12-------|
2.|---12------------|----------|--------------------|----12---------|
3.|-13----11v--9----|-11-------|--------------------|-11v-----11bv--|
4.|-----------------|----------|--------------------|---------------|
5.|-----------------|----------|--------------------|---------------|
6.|-----------------|----------|--------------------|---------------|

1.|-----------------------|
2.|-----------------------|
3.|---8-9-11-9-8----------|
4.|-9------------11-9-11-|
5.|-----------------------|
6.|-----------------------|

C#m                 A
Tengo que romper cadenas
E
no quiero seguir atado
       B
a tus pies.
C#m                      A
Tengo que enterrar mis penas
    B
voy a olvidarte
E     B
y dejarte ya.

CORO:
1.|----0--------|----2--------|----0--------|----2--------|
2.|---0---------|---4---------|---2---------|---4---------|
3.|--1----------|--4----------|--2----------|--4----------|
4.|-2-----------|-4-----------|-2-----------|-4-----------|
5.|-------------|-------------|-------------|-------------|
6.|-------------|-------------|-------------|-------------|

E    B
Como un perro
A        B
me has traido
E    B       A B
enloquesido.     (X2)


E B A B (X2)
1.|-----12-12-|-----12-12-|-----12-12-|-----12-12--|
2.|-----12-12-|-----12-12-|-----12-12-|-----12-12--|
3.|-----------|-----------|-----------|------------|
4.|-----------|-----------|-----------|------------|
5.|-----------|-----------|-----------|------------|
6.|-----------|-----------|-----------|------------|

(CON LOS ACORDES DEL CORO)
Busca otro perro
no soy tu perro(x2) no,no,no.

(TERMINA EN (E)
=============================FIN=================================
BUENO AMIGOS YA ESTA "completita" OK ESTA EN SU TONO ORIGINAL
ASI QUE ESPERO QUE LES SALGA "practiquen" OK CHAÚ.

LEANDRO_TRANSCRIPCIONES@  18/01/05  20:07hs
  CHAU!!!!!!!
Suggest correction
Give kudos to tab author, rate the tab!
1 2 3 4 5
comments
print report bad tab
guest
You may want to rate the tab now too:
select rating
Wanna post a correction for this tab? Suggest correction