Oops, an error
Loading. Please wait.

Como Un Perro Enloquecido Tab

version 4
version 4

Whole song

Interactive

67 views 1 this week
no commentswrite comment
1 2 3 4 5
3 more votes to show rating
add to favorites
launch autoscroll
font size
0
reset
how to read this tab
guitar tuner
Autoscroll
slow
fast
+/-
esc
set tempo
stop
Help us to improve Ultimate-Guitar.com Take our survey!
×
HOLA COMO ESTAN AQUÍ CON OTRO NUEVO TAB MUY FACIL WE
DE MANA ESTO QUE ES PERRO ENLOQUESIDO ES EL SOLO LOS
OTROS
ESTAN BIEN PERO LES FALTAN ALGUNAS NOTILLAS Y CREO QUE
 ESTE
ESTA MEJOR SI QUIERES VER EL COMO HAGO EL SOLO LUEGO
PONDRE
UN VIDEO EN YOUTUBE LO BUSCA POR STROKESBERRYS
SALE UN SALUDO
A LOS STROKESBERRY DE ANGOSTURA SINALOA
MEXICO DONDE EL ROCK NO SE ESCUCHA JAJJA
 JAJAJ Y EN ESPECIAL AL
GUITARRISTA O SEA YO JAJAJAJA BUENO
 ESTE SOLO LO SAQUE EL DIA 8 DE ENERO DEL 2008
EN LA NOCHE OJALA SEA
DE UTILIDAD Y NO SEA TAN
EXIGENTE TENGO 18 AÑOS Y NUNCA HE IDO A CLASES DE
 GUITARRA JAJAJA
 DEBAJO DEL SOLO LE EXPLICO POR QUE CREO QUE ESTA
 AL 100% Y EL
 ACOPAÑAMIENTO NO LO AGREGUE POR
 QUE EN LOS OTROS SOLO QUE ESTAN ESTA BIEN
SALE AHÍ VA.-
OJO LOS NUMERO 1,2.3.4,5,6,7,8 SON
COMPASES OK.-

SOLO: 2:31
          1                         2                     3
E-------------------------|------------7b------|------------------------|
B-------5?7?7/9b-5---7B---|5h7p5----7b------7b-|-5-5-5-7-5---7b-5-------|
G---/-6-------------------|--------------------|------------------6-6-b-|
D-------------------------|--------------------|------------------------|

                4                   5                      6

E-------7b---7/9b-7-9b-|-11-11h12p11--11b|---------11-12-14b-11h12p11----|
B-5-4-5---5------------|------------14---|-14-14-14------------------14b-|
G----------------------|-----------------|-------------------------------|
D----------------------|-----------------|-------------------------------|

                                     7

E------------------------------12---------------------|
B---14-14-14-12------------12-------------------------|
G-------------------14-13-------------13b?p11?9---11b-|
D-----------------------------------------------------|

                                    8                       9

E--------12h14p12----12--11h14p11----11----12-|--------12--------------|
B?12-14-----------14--------------14---12-----|----12-------12b--------|
G---------------------------------------------|-11--------------11b-9b-|
D---------------------------------------------|------------------------|

SIMBOLOGIA

b BEND.-SUBES LA CUERDA HACIA ARRIBA O HACIA ABAJO DEPENDIENDO
/ SLIDE.-DESLIZAS LA NOTA YA SEA HACIA DELANTE O HACIA ATRÁS
h HAMMER.- MATILLAS LA NOTA OSEA PRIMERO GOLPEA LA NOTA Y LUEGO
   LE DEJAS CAER EL OTRO DEDO PARA TOCAR LA SIGUIENTE NOTA
P PULL OFF .- ES CASI LOS MISMO QUE EL HAMMER PERO AL REVES O SEA
   LEVANTAS PRIMERO LA NOTA GOLPEANDOLA Y LUEGO DEJAS QUE SUENE
   OTRA NOTA SIN QUE GOLPES OJO SE GOLPEA UN VEZ Y LUEGO SIN DEJAR
   DE SONAR HACES LO OTRO
hp..?(5h7p5).-HAMMER ON PULL OFF.- O SEA ES LO QUE SE LE LLAMA LOS
      LIGADOS O ESTIRAR LA CUERDA SE HACE  PONES EL DEDO EN LA NOTA
      LUEGO LE DEJAS CAER EL OTRO DEDO EN LA OTRA NOTA Y LEVANTAS Y
      ESTIRAS LA CUERDA.-

BUENO TIPS PARA QUE PUEDAS SACAR ESTE  SOLO:

1.-MUY IMPORTANTE ES CASI IGUAL ESTE SOLO QUE LOS OTROS PERO
    ESTE ESTA MAS COMPLETO YA SABEN A LOS OTROS LE  FALTAN NOTAS.
 ESTE SOLO  JUEGA UN PAPEL LOS BEND O VIBRATOS POR QUE SE TIENE
    QUE SUBIR Y BAJAR MUCHOS LA CUERDA-
3.-SI NO LE ENTIENDES  A LAS ?LETRAS EN LOS NUMEROS? SOLO TOCA LOS
    NUMEROS Y TE VAS HA DAR UNA IDEA DE CÓMO VA EL SOLO, LAS LETRAS
    SON PARA ESPECIFICAR LOS ?EFECTOS QUE SE HACEN CON LA MANO?
 4.-UTILIZA UNA BUENA GUITARRA Y UN BUEN AMPLIFICADOR Y UN BUENA
     DISTORCION NOTA.- YO UTILIZO MEGA DISTORSION PARA EL SOLO.
5.- POR ULTIMO SI TE HABRAS DADO CUENTA LO UNICO QUE CORREGI
     FUERON 3 PARTES UNA EN EL 4 COMPAS HACIA FALTA UNA PARTE EL
     OTRO FUE 8 COMPAS COMO ES UNA PARTE RAPIDA ESTA DIFICIL PERO NO
     IMPOSIBLE Y LA OTRO ES EN EL 9 COMPAS LA PARTE FINAL..-

DUDAS O COMENTARIOS O QUE QUIERAN UN TAB DE CUALQUIER GRUPO MI
 CORREO ES KOBE_8_7@

                                        ATTE.- MARTIN ARMENTA BELTRAN
Suggest correction
Give kudos to tab author, rate the tab!
1 2 3 4 5
comments
print report bad tab
guest
You may want to rate the tab now too:
select rating
Wanna post a correction for this tab? Suggest correction