Oops, an error
Loading. Please wait.

Corazón Espinado Tab

version 4
version 4
196 views 3 this week
no commentswrite comment
1 2 3 4 5
3 more votes to show rating
add to favorites
launch autoscroll
font size
0
reset
how to read this tab
guitar tuner
×
Best way to learn
"Corazón Espinado"
Autoscroll
slow
fast
+/-
esc
set tempo
stop
bueno... esta tablatura es la version de Maná con Santana.
No es muy dificil, juega con los punteos atravez de escalas y en el mismo
lugar, casi siempre, suerte, aca vamos:


INTRO:

1|--------------------|-----7-6--------------------------|
2|--------------------|---7-----7------------------------|
3|---------7----------|-7---------9--7-9//11-11--9-6-7-9-|
4|----7//9---9//7//9--|----------------------------------|
5|--9-----------------|----------------------------------|
6|--------------------|----------------------------------|

1|--------7//10-7----7-|----14-19-18-14-------------------|
2|--7//10---------10---|-15-------------17--15-17//19-19--|
3|---------------------|----------------------------------|
4|---------------------|----------------------------------|
5|---------------------|----------------------------------|
6|---------------------|----------------------------------|

1|-----------------------------------------------||
2|-17//19-19-17//19-19--17-14-15-17-15-14-14-12--||
3|-----------------------------------------------||
4|-----------------------------------------------||
5|-----------------------------------------------||
6|-----------------------------------------------||

Esa mujer me esta matando
me ha espinado el corazón

1|------------------------||
2|------------------------||
3|-9//11-9-7-9-7-11//7-9--||
4|------------------------||
5|------------------------||
6|------------------------||

por más que trato de olvidarla
mi alma no da razón.

1|--------------------||
2|--------------------||
3|--6-7-9--9//7-------||
4|--------------9//7--||
5|--------------------||
6|--------------------||

[ch]E[/ch] corazón aplastado

1|-------------------------||
2|--10-8-7-----------------||
3|---------9-7-9-11-9//11--||
4|-------------------------||
5|-------------------------||
6|-------------------------||

dolido y abandonado
a ver a ver tu sabes dime mi amor

1|-----------||
2|-----------||
3|------6-7--||
4|----9------||
5|--9--------||
6|-----------||

cuanto amor y que dolor nos quedó

CORO
    Ah ah ah corazón espinado
                              _
1|-------------------------||  |
2|-------------------------||  |
3|-----7-------------------||  |Sto hace la
4|--9------9-8-11---8---8--||  |segunda guitarra
5|-------9--------9---9----||  |
6|-------------------------||  |
                              _|
       Como duele me duele mamá
                              _
1|-------------------------||  |
2|-------------------------||  |
3|-----7-------------------||  |Sto hace la
4|--9------9-8-11---8---8--||  |segunda guitarra
5|-------9--------9---9----||  |
6|-------------------------||  |
                              _|

Ah ah ah como me duele el amor

1|--5//7--7-7-7-7-7--7-7-7-7-5//7--5------------------||
2|-----------------------------------7//5--7-5-7-5-7--||
3|----------------------------------------------------||
4|----------------------------------------------------||
5|----------------------------------------------------||
6|----------------------------------------------------||

Como duele como duele el corazón
cuando uno es bien entregado

1|---------||
2|---------||
3|--6-7-9--||
4|---------||
5|---------||
6|---------||

pero no olvides mujer que algun día diras
ay ay ay como me duele el amor

1|--------------------------------||
2|--------------------------------||
3|---9//11--11-11--9//7---9//7----||
4|----------------------9------9--||
5|--------------------------------||
6|--------------------------------||


CORO

    Ah ah ah corazón espinado
                              _
1|-------------------------||  |
2|-------------------------||  |
3|-----7-------------------||  |Sto hace la
4|--9------9-8-11---8---8--||  |segunda guitarra
5|-------9--------9---9----||  |
6|-------------------------||  |
                              _|

       Como duele me duele mamá
                              _
1|-------------------------||  |
2|-------------------------||  |
3|-----7-------------------||  |Sto hace la
4|--9------9-8-11---8---8--||  |segunda guitarra
5|-------9--------9---9----||  |
6|-------------------------||  |
                              _|

Ah ah ah como me duele el amor

1|---------------------------------|-------------------------||
2|--10//12-10----10----------------|-12-10-------------------||
3|------------11-------9//11-9//11-|-------11-9-7-9-11//7----||
4|------------------12-------------|----------------------9--||
5|---------------------------------|-------------------------||
6|---------------------------------|-------------------------||

Ah ah ah corazón espinado

1|----------------------||
2|----------------------||
3|----7-6---7-6---------||
4|--9-----------9-7//9--||
5|----------------------||
6|----------------------||

1|--12//10--12//10--12//10--12//10--12//14-14-14-14--12-10-12-----||
2|------------------------------------------------------------12--||
3|----------------------------------------------------------------||
4|----------------------------------------------------------------||
5|----------------------------------------------------------------||
6|----------------------------------------------------------------||

Ah ah ah como me duele el amor

1|--10-9--10-9------------||
2|-------------12-10//12--||
3|------------------------||
4|------------------------||
5|------------------------||
6|------------------------||

1|-------------||
2|-------------||
3|-------------||
4|-------------||
5|--7//9-7//9--||
6|-------------||

ECHELE MI CARLITOS

Aqui se hace una cejilla y luego la desliza hacia abajo un kon rasgueo
rápido.

SOLO 1 :

1|------------------9//10-7---7-7-7-7-7--7-7--|---------------------|
2|--10//12-10-7---7---------9-----------------|---------------------|
3|--------------9-----------------------------|-11-9//11-9--9//7-9--|
4|--------------------------------------------|---------------------|
5|--------------------------------------------|---------------------|
6|--------------------------------------------|---------------------|

1|-7//10-10-10--7-10--7-10-10-10--7-10-10-|-7//10--12-12-10-12-12-10-|
2|----------------------------------------|--------------------------|
3|----------------------------------------|--------------------------|
4|----------------------------------------|--------------------------|
5|----------------------------------------|--------------------------|
6|----------------------------------------|--------------------------|

1|-12-12-12--10-12-12-|-10//12--14//15-14//15-14//15--14//15-14//15--|
2|--------------------|----------------------------------------------|
3|--------------------|----------------------------------------------|
4|--------------------|----------------------------------------------|
5|--------------------|----------------------------------------------|
6|--------------------|----------------------------------------------|

1|-14-15-14-15-14-15-14-15-17-15-14-17//19-19-|-19-17-14-12-14--|
2|--------------------------------------------|-----------------|
3|--------------------------------------------|-----------------|
4|--------------------------------------------|-----------------|
5|--------------------------------------------|-----------------|
6|--------------------------------------------|-----------------|

1|-19-19-19-14//12-14//12-14------------14//12-12--------------------|
2|---------------------------14//15//17-----------15//14//12--10//12-|
3|-------------------------------------------------------------------|
4|-------------------------------------------------------------------|
5|-------------------------------------------------------------------|
6|-------------------------------------------------------------------|

1|-------------------------------------------------------------------|
2|-12//14//15-12//14//15-12//14//15-12//14//15-12//14//15-12//14//15-|
3|-------------------------------------------------------------------|
4|-------------------------------------------------------------------|
5|-------------------------------------------------------------------|
6|-------------------------------------------------------------------|

1|---------------------------------------------------------------||
2|-12--14//15//17-14//15//17-14//15//17-14//15//17-14//15//17-17-||
3|---------------------------------------------------------------||
4|---------------------------------------------------------------||
5|---------------------------------------------------------------||
6|---------------------------------------------------------------||

Aqui se hace parecido ke al principio pero luego ke se desliza la cejilla
hacia abajo se desliza hacia ariba kon un rasgueo rápido.

Como me duele el olvido

1|----------------------||
2|--10-8-7--------------||
3|---------9-7-9-11-11--||
4|----------------------||
5|----------------------||
6|----------------------||

como duele el corazón

1|----7-9-10-9-7----------||
2|--7------------7--------||
3|-----------------7------||
4|-------------------9-7--||
5|------------------------||
6|------------------------||


como me duele estar vivo

1|-----------------------------------||
2|-----------------------------------||
3|----6-9-9-7-9-11-12-11-9//11-9//7--||
4|--7--------------------------------||
5|-----------------------------------||
6|-----------------------------------||

sin tenerte a un lado amor

1|-----------------------------||
2|-----------------------------||
3|-----------------------------||
4|-----------------------------||
5|--7//9-9-9--7//9-9-9-7//9-9--||
6|-----------------------------||

Corazón
espinado....corazón espinado... corazón espinado
1|-------------------------|--------------------|----------||
2|-------------------------|--------------------|-----7----||
3|----7-9-11-9//11-9-7-----|-7-6--6//7-6--------|-7-9---9--||
4|--9------------------7-9-|-------------7---9--|----------||
5|-------------------------|---------------9----|----------||
6|-------------------------|--------------------|----------||

corazón espinado....

1|-------------------------------|
2|--------12-10//7---------------|
3|--9//11----------9--9-7--------|
4|------------------------9-7-9--|
5|-------------------------------|
6|-------------------------------|

1|--------7---7-7-7-7--7-7--||
2|------7---7---7-7-7--7-7--||
3|--7-9---------------------||
4|--------------------------||
5|--------------------------||
6|--------------------------||

SOLO 2 :

1|--12//14--12-10-12//14-14-14--12-10-12----|
2|---------------------------------------12-|
3|------------------------------------------|
4|------------------------------------------|
5|------------------------------------------|
6|------------------------------------------|

1|-----------------------------------------------------------|
2|--15//14//12-15//14//12--14//15//17-14//15//17-14//15//17--|
3|-----------------------------------------------------------|
4|-----------------------------------------------------------|
5|-----------------------------------------------------------|
6|-----------------------------------------------------------|

1|---------14-14-14-14-14-14-14-14-14-14-14-14-14-14-14-14-14-14-14--|
2|-15//17//15-15-15-15-15-15-15-15-15-15-15-15-15-15-15-15-15-15-15--|
3|-------------------------------------------------------------------|
4|-------------------------------------------------------------------|
5|-------------------------------------------------------------------|
6|-------------------------------------------------------------------|

1|----------14--17//14-17//14-17//14-17//19--19-19-19-19--19-19-19-19-|
2|-14-15-17-----------------------------------------------------------|
3|--------------------------------------------------------------------|
4|--------------------------------------------------------------------|
5|--------------------------------------------------------------------|
6|--------------------------------------------------------------------|

1|--19-17-----------------||
2|--------19-17-19-17-15--||
3|------------------------||
4|------------------------||
5|------------------------||
6|------------------------||

corazón espinado....

1|--10//9-10//9-10//9-10--9--12-10-9---------------||
2|-----------------------------------10----10//12--||
3|--------------------------------------11---------||
4|-------------------------------------------------||
5|-------------------------------------------------||
6|-------------------------------------------------||

corazón espinado....

1|--10-9--9-10-9------------||
2|---------------12-10//12--||
3|--------------------------||
4|--------------------------||
5|--------------------------||
6|--------------------------||

corazón espinado....

1|-------------|------------------------------||
2|-------------|----------12--10//7-----------||
3|----7-9-11-9-|-9//11-11-----------9--9//7---||
4|--9----------|---------------------------9--||
5|-------------|------------------------------||
6|-------------|------------------------------||

corazón espinado....

1|-----------------------------||
2|-----------------------------||
3|----7-9-11-9--9//11-11-11-9--||
4|--9--------------------------||
5|-----------------------------||
6|-----------------------------||

FINAL :

1|--7--7--7--7--7--7---7--7---9--9--9--9--9--9--|
2|-10-10-10-10-10-10--10-10--12-12-12-12-12-12--|
3|----------------------------------------------|
4|----------------------------------------------|
5|----------------------------------------------|
6|----------------------------------------------|

1|---9--9--9---9--9---10-10-10-10-10--10-10-10-10-10--|
2|--12-12-12--12-12---12-12-12-12-12--12-12-12-12-12--|
3|----------------------------------------------------|
4|----------------------------------------------------|
5|----------------------------------------------------|
6|----------------------------------------------------|

1|-12-12--|-12//14-14-14-12//14-14--12//14--12//14--12//14-12//14//17-|
2|-12-12--|-----------------------------------------------------------|
3|--------|-----------------------------------------------------------|
4|--------|-----------------------------------------------------------|
5|--------|-----------------------------------------------------------|
6|--------|-----------------------------------------------------------|

1|--12----12//14--14------------------------------------|
2|-----15-------------15//14-12--15//14-12--15//14//12--|
3|------------------------------------------------------|
4|------------------------------------------------------|
5|------------------------------------------------------|
6|------------------------------------------------------|

1|------------------------|-----19----21-22-22--21-21--19--19--|
2|--14//15-17--14//15-17--|--19----19--------------------------|
3|------------------------|------------------------------------|
4|------------------------|------------------------------------|
5|------------------------|------------------------------------|
6|------------------------|------------------------------------|

1|--------19-------------------19--|
2|--19-17-----17-15-19--17---------|
3|-------------------------16------|
4|---------------------------------|
5|---------------------------------|
6|---------------------------------|

1|--22-22-22-22-22-22-22-22--23-23-22-19-19--|
2|-------------------------------------------|
3|-------------------------------------------|
4|-------------------------------------------|
5|-------------------------------------------|
6|-------------------------------------------|

1|--19-18-17-15-14--12//14-12--------|---------19//22-19--|
2|----------------------------15-12--|--19//22------------|
3|-----------------------------------|--------------------|
4|-----------------------------------|--------------------|
5|-----------------------------------|--------------------|
6|-----------------------------------|--------------------|

1|---------19//22-19-----19//22-19----19-19-24--|
2|--19//22------------22-----------22-----------|
3|----------------------------------------------|
4|----------------------------------------------|
5|----------------------------------------------|
6|----------------------------------------------|

1|----------------------|-------------------------------------------|
2|----------------------|-------------------------------------------|
3|--16//19-16----16-16--|-------------------------------------------|
4|------------19--------|-14//16-14--12//14-14--14//16---14//12-----|
5|----------------------|---------------------------------------14--|
6|----------------------|-------------------------------------------|

1|----------------------------------||
2|----------------------------------||
3|----------------------------------||
4|-----12----12----12----12----12.--||
5|--14----14----14----14----14------||
6|----------------------------------||


Segunda guitarra

Bm                   F#m
Esa mujer me esta matando
me ha espinado el corazon
por mas que trato de olvidarla
mi alma no da razon
Bm              F#m
mi corazon aplastado
dolido y abandonado
a ver a ver tu sabes dime mi amor
cuanto amor di que dolor nos quedo

coro
Bm      F#m                 Bm               F#m
Ah ah ay corazon espinado como duele me duele mama
Ah ah ay como me duele el amor

Bm                       F#m
como duele como duele el corazon
cuando uno es bien entregado
pero no olvides mujer que algun dia diras
ay ay ay como me duele el amor

coro

(hechale mi carlitos)
Em                  Bm
como me duele el olvido
Em                Bm
como duele el corazon
D                     A
como me duele estar vivo
Em                     F#m
sin tenerte a un lado amor

F#m           Bm
corazon espinado....
requinto
Bm             F#m
corazon espinado....


bueno espero que no se les alla complicado.. cualquier duda me contactan
a mi msn o mail: FEDERICO_KV@

Besos.. y.... aguante mana..
Suggest correction
Give kudos to tab author, rate the tab!
1 2 3 4 5
comments
print report bad tab
guest
You may want to rate the tab now too:
select rating
Wanna post a correction for this tab? Suggest correction