Oops, an error
Loading. Please wait.

Corazón Espinado Tab

version 6
version 6
721 views 1 this week
1 commentread comment
1 2 3 4 5
2 more votes to show rating
add to favorites
launch autoscroll
font size
0
reset
how to read this tab
guitar tuner
Autoscroll
slow
fast
+/-
esc
set tempo
stop
Help us to improve Ultimate-Guitar.com Take our survey!
×
Hola soy Luis Anto jejeje, y aquí les traigo
uno de los mejores solos de la historia de guitarra,
 cualquier duda o comentario me lo hacen llegar llegar a mi
 correo en blanco lualanmi @ gmail . com


1|-----------------------------------------------7--|
2|--------------------------------------------7-----|
3|--------------------7--------------------7--------|
4|----------------7-9---9-7-9~----------------------|
5|--------------9-----------------------------------|
6|--------------------------------------------------|


1|--6--------------------------|
2|-------7---------------------|
3|----------9--7------9b--9b~--|
4|-----------------------------|
5|-----------------------------|
6|-----------------------------|


1|-----------------------7-10-7----|--7~---------------14--17pbr--|
2|------------------7-10--------10-|---------------15-------------|
3|--9--6--7--9~--------------------|------------------------------|
4|---------------------------------|------------------------------|
5|---------------------------------|------------------------------|
6|---------------------------------|------------------------------|


1|--17b----14h-17p-14-----------------14~--|
2|--------------------17-----15--17b-------|
3|-----------------------------------------|
4|-----------------------------------------|
5|-----------------------------------------|
6|-----------------------------------------|


1|-----14-----14---14---14---14---14---14---L-14---14---14---|
2|-----17b----17pb-17pb-17pb-17pb-17pb-17pb-L-17pb-17pb-17pb-|
3|-----------------------------------------------------------|
4|-----------------------------------------------------------|
5|-----------------------------------------------------------|
6|-----------------------------------------------------------|


1|-----------------------------------|--------------------------------|
2|--17--14--15--17-----15--14-15-14--|--------------------------------|
3|-----------------------------------|-----16--16--(16)------(16)/----|
4|-----------------------------------|--------------------------------|
5|-----------------------------------|--------------------------------|
6|-----------------------------------|--------------------------------|


Hasta aki termina la intro,ahora empieza lo demás


Esa mujer me está matando

me ha espinado el corazón


1|---------------------------------------------------------|
2|-----10-------------------7------------------------------|
3|------9br----(9)p-7-9--7----7----------------------------|
4|------------------------------9------(9)/0---------------|
5|---------------------------------------------------------|
6|---------------------------------------------------------|


por más que trato de olvidarla
mi alma no da razón.


1|----------------------------|
2|----------------------------|
3|-----6--7--9~-------9p-7----|
4|-------------------------9--|
5|----------------------------|
6|----------------------------|


[ch]E[/ch] corazón aplastado


1|----------5----------------------------------------------|
2|-------------8--7--5-----5-------7-5-7~------------------|
3|----------------------7----------------------------------|
4|---------------------------------------------------------|
5|---------------------------------------------------------|
6|---------------------------------------------------------|


dolido y abandonado
a ver a ver


1|-------------------------|
2|-------------------------|
3|--------4--6--7~---------|
4|-----4-------------------|
5|-------------------------|
6|-------------------------|


tu sabes dime mi amor
cuanto amor y que dolor nos quedó


CORO

Ah ah ah corazón espinado
Como duele me duele mamá
Ah ah ah como me duele el amor


1|------7--7--7----7----7----7----7---7----7----7----7---7----7---|
2|-----10b---10b-10b-10b-10b-10b-10b-10b-10b-10b-10b-10b----------|
3|----------------------------------------------------------------|
4|----------------------------------------------------------------|
5|----------------------------------------------------------------|
6|----------------------------------------------------------------|


1|------------------------------|
2|-----10p-7----7-----7---------|
3|-----------9-----9-----9b~----|
4|------------------------------|
5|------------------------------|
6|------------------------------|

Como duele como duele el corazón
cuando uno es bien entregado


1|--------------------------|
2|-----------5~-------------|
3|-----6--7---------7-------|
4|--------------------------|
5|--------------------------|
6|--------------------------|


    pero no olvides mujer que algun día diras
ay ay ay


1|--------------------------------|
2|--------------------------------|
3|-----9b--9pb--9pb--9pbr---------|
4|--------------------------------|
5|--------------------------------|
6|--------------------------------|


como me duele el amor


1|----------------------------------|
2|-----10-7---7---------------------|
3|----------9---9b--9-7---7-9p7-----|
4|----------------------9--------9--|
5|----------------------------------|
6|----------------------------------|


CORO
Ah ah ah corazón espinado
Como duele me duele mamá
Ah ah ah como me duele el amor


1|--7--------------------------|
2|----------10--7-10--7h10p7---|
3|-----------------------------|
4|-----------------------------|
5|-----------------------------|
6|-----------------------------|


1|-------------7-------------------------------|
2|----7-----7-----10--7-------------7----------|
3|--9---9b---------------9b--9--7-----7--------|
4|--------------------------------9-------9~---|
5|---------------------------------------------|
6|---------------------------------------------|


1|---------------------------|--------------------------------------------|
2|---------------------------|-----15-15-17p15-17p15-17p15-17br-----------|
3|-7--6~--6~--6~--7--6-------|--------------------------------------------|
4|---------------------9--9--|--------------------------------------------|
5|---------------------------|--------------------------------------------|
6|---------------------------|--------------------------------------------|


1|-----14-------14--14--------------------|-------------------------|
2|---------17b----------15-15-17----------|-------------15------14--|
3|--------------------------------16--16--|--16~--------------------|
4|----------------------------------------|-------------------------|
5|----------------------------------------|-------------------------|
6|----------------------------------------|-------------------------|


1|----------------------------------------|
2|-----14--14--14--14br----12-12-12/------|
3|----------------------------------------|
4|----------------------------------------|
5|----------------------------------------|
6|----------------------------------------|


1|--------------------------|----------7/--(2)-----------|
2|--------------------------|----------7/--(2)-------3/--|
3|--------------------------|----------7/--(2)-------4/--|
4|--------------------------|------------------------4/--|
5|------2/9--2/9------------|----------------------------|
6|--------------------------|----------------------------|


1|---------------------------------------------------0----|
2|--5-6-7--8--9-10-11-12-13-14-15-16-17--17-16-15-14-0----|
3|--6-7-8--9-10-11-12-13-14-15-16-17-18--18-17-16-15-0----|
4|--7-8-9-10-11-12-13-14-15-16-17-18-19--19-18-17-16------|
5|--------------------------------------------------------|
6|--------------------------------------------------------|


Solo1


1|---------------------------------------------------------------|
2|--12-------------------------------------------14br--(14)--12--|
3|--14b------------14--11-------11~------------------------------|
4|-------------------------14b-----------------------------------|
5|---------------------------------------------------------------|
6|---------------------------------------------------------------|


1|--------------------------------------------------------|
2|--12----12---12---12---12---12---12---------------------|
3|--14b---14pb-14pb-14pb-14pb-14pb-14pb--14p-11-----------|
4|----------------------------------------------14b--14~--|
5|--------------------------------------------------------|
6|--------------------------------------------------------|


1|----------------------------------|
2|----------------------------------|
3|----------------------------------|
4|----12-14-14~---------------------|
5|----------------------------------|
6|----------------------------------|


1|--7-10-10-7-10-10-7-10-7-10-10-7-10-10-7-10-|
2|--------------------------------------------|
3|--------------------------------------------|
4|--------------------------------------------|
5|--------------------------------------------|
6|--------------------------------------------|


1|--9-12-12-9-12-12-9-12-12-9-12-12-12-12-10-10-14-14-14-|
2|-------------------------------------------------------|
3|-------------------------------------------------------|
4|-------------------------------------------------------|
5|-------------------------------------------------------|
6|-------------------------------------------------------|


1|--14-14-15-14-15-14-15-14-15-14-15-14-14--15--14--15--|
2|------------------------------------------------------|
3|------------------------------------------------------|
4|------------------------------------------------------|
5|------------------------------------------------------|
6|------------------------------------------------------|


1|--14--15--14--15--15b--15--14--17br--17b|
2|----------------------------------------|
3|----------------------------------------|
4|----------------------------------------|
5|----------------------------------------|
6|----------------------------------------|


1|----17br-----14-------14--|
2|-----------------17b------|
3|--------------------------|
4|--------------------------|
5|--------------------------|
6|--------------------------|


1|-----14~---------17br-------|
2|----------------------------|
3|----------------------------|
4|----------------------------|
5|----------------------------|
6|----------------------------|


1|--17br--17p-14----14----------------17---------|
2|---------------17----17b--17-15-17-----15-17~--|
3|-----------------------------------------------|
4|-----------------------------------------------|
5|-----------------------------------------------|
6|-----------------------------------------------|


1|-----------------------7/12-------|
2|-----15-14-----------7-7/12-------|
3|-----------16/--------------------|
4|----------------------------------|
5|----------------------------------|
6|----------------------------------|


1|----------------------------------------------------------------|
2|-12--15-14p-12-15-14-12-15-14-12-15-14-12-15-14-12-15-14-12--14-|
3|----------------------------------------------------------------|
4|----------------------------------------------------------------|
5|----------------------------------------------------------------|
6|----------------------------------------------------------------|


1|---------------------------------------------------14--------------|
2|--17-15-14---17-15-14-17-15-14-17-15-14-17-15-14------17p-15-14-15-|
3|-------------------------------------------------------------------|
4|-------------------------------------------------------------------|
5|-------------------------------------------------------------------|
6|-------------------------------------------------------------------|


1|-9-9-9-9-10-|
2|------------|
3|-6-6-6-6--7-|
4|------------|
5|------------|
6|------------|


1|--11-11-11-11-12-12-12-12-13-13-13-13-14-14-15-15-16-16-16-16-17-17-|
2|--------------12-12-12-12-13-13-13-13-14-14-15-15-16-16-16-16-17-17-|
3|---8--8--8--8-12-12-12-12-13-13-13-13-14-14-15-15-16-16-16-16-17-17-|
4|--------------------------------------------------------------------|
5|--------------------------------------------------------------------|
6|--------------------------------------------------------------------|


1|-18-19-20-21-22-23-24---|
2|-18-19-20-21-22-23-24---|
3|-18-19-20-21-22-23-24---|
4|------------------------|
5|------------------------|
6|------------------------|


   Como me duele el olvido


1|-----------------------------------------------------------|
2|-----------------------------------------------------------|
3|--------------14--12--11---------------11--11~-------------|
4|--------------------------14--12----14---------------------|
5|-----------------------------------------------------------|
6|-----------------------------------------------------------|


como duele el corazón


1|-------7--9~------10--9--7~---------------|
2|----7----------------------------7--------|
3|------------------------------------7-----|
4|---------------------------------------9--|
5|------------------------------------------|
6|------------------------------------------|


como me duele estar vivo


1|-------------------------------------------------|
2|--------------------------7--8--7----------------|
3|-----------9-9/7-------9-----------9h11--9/------|
4|--7--9h11----------------------------------------|
5|-------------------------------------------------|
6|-------------------------------------------------|


sin tenerte a un lado amor


1|----------------------------|
2|----------------------------|
3|----------------------------|
4|----------------------------|
5|-----/9--9----/9--9---------|
6|------------------------(2)-|


 (corazón espinado...)

1|-----------------------------------|
2|----------------7-----7------------|
3|------7---9~------9-----7-----7----|
4|--9~-----------------------9--7--9-|
5|-----------------------------------|
6|-----------------------------------|


1|--------------------------------------------|
2|--------------------------------------------|
3|--------7----7--6~---------6-6-7-6----------|
4|--9-9------------------------------7----7h9-|
5|-------------------------------------9------|
6|--------------------------------------------|


1|-----------------------7------------------------|
2|-----------------------7-----10p7---------------|
3|-------7-9b--9~-----9b-----------9b---9-7-------|
4|---9-9------------------------------------9-7-9-|
5|------------------------------------------------|
6|------------------------------------------------|


1|------------7----------7-7-7-7-7-7----0----|
2|---------7-----------7---7-7-7-7-7----0----|
3|--7--9b----------9b-------------------0----|
4|-------------------------------------------|
5|-------------------------------------------|
6|-------------------------------------------|


Solo2:


1|--12br------------(12)--10--12b--|
2|---------------------------------|
3|---------------------------------|
4|---------------------------------|
5|---------------------------------|
6|---------------------------------|

1|--------12b----12b---10-12----------|
2|---------------------------12-12-12-|
3|------------------------------------|
4|------------------------------------|
5|------------------------------------|
6|------------------------------------|


1|------10--------10----------|
2|---------12-12-----12-12/7--|
3|----------------------------|
4|----------------------------|
5|----------------------------|
6|----------------------------|


1|----12-12-----12-12-----12-12~--------14-14-14-|
2|-14--------14--------14-----------15-----------|
3|-----------------------------------------------|
4|-----------------------------------------------|
5|-----------------------------------------------|
6|-----------------------------------------------|


1|--14-14-14-14-14-14-14-14-14-14-14-14-14-14-14-14-|
2|--15-15-15-15-15-15-15-15-15-15-15-15-15-15-15-15-|
3|--------------------------------------------------|
4|--------------------------------------------------|
5|--------------------------------------------------|
6|--------------------------------------------------|


1|----------14--17-14-17-14-17-14-17b-------|
2|--15--17----------------------------------|
3|------------------------------------------|
4|------------------------------------------|
5|------------------------------------------|
6|------------------------------------------|


1|-----17b-17b-17b-17b-17b-17b-17b--17b-17b-17b-17b-17br--|
2|--------------------------------------------------17br--|
3|--------------------------------------------------------|
4|--------------------------------------------------------|
5|--------------------------------------------------------|
6|--------------------------------------------------------|


1|------17--14----14------------------|-----------------14--14--14-------|
2|-------------17----17b--17--15------|-----15--15--15--15--15--15--14~--|
3|------------------------------------|-----16--16--16-------------------|
4|------------------------------------|----------------------------------|
5|------------------------------------|----------------------------------|
6|------------------------------------|----------------------------------|


1|--------------------------------------------------|
2|----14-17-15-14-------------------------15-15-15--|
3|----------------14----14h16~------16-16-----------|
4|-------------------16-----------------------------|
5|--------------------------------------------------|
6|--------------------------------------------------|


1|-------------------------------------|-------------------------|
2|-------14--14--15--14----------------|----------------7--------|
3|-----------------------14h16--14h16--|-------11-9-7-9---9b-9~--|
4|-------------------------------------|-------------------------|
5|-------------------------------------|-------------------------|
6|-------------------------------------|-------------------------|


1|--------------7---------------------------------------------|
2|----------(7)---10-7----------------------------------------|
3|-----7-9b-----------9b---9-7----------------7-----9--9b--9--|
4|------------------------------9-------9--9------------------|
5|------------------------------------------------------------|
6|------------------------------------------------------------|


1|---------|
2|---------|
3|----7-9~-|
4|---------|
5|---------|
6|---------|


1|------7---7----7----7----7----7----7----7----7----7----7----9---9---|
2|-----10b-10b-10b-10b-10b-10b-10b--10b-10b-10b-10b-12b-12b-----------|
3|--------------------------------------------------------------------|
4|--------------------------------------------------------------------|
5|--------------------------------------------------------------------|
6|--------------------------------------------------------------------|


1|---9----9----9----9----9---9----9----9----9----9----9---9----9----9---0|
2|--12b-12b-12b-12b-12b-12b-12b-12b-12b-12b-12b-12b-12b-12b-0------------|
3|-----------------------------------------------------------------------|
4|-----------------------------------------------------------------------|
5|-----------------------------------------------------------------------|
6|-----------------------------------------------------------------------|


1|--10--10---10---10---10---10---10---10---10---10---10---10---0--12---|
2|--13b-13b-13b-13b-13b-13b-13b-13b-13b-13b-13b-13b-0--15b-------------|
3|-------------------------------------------------------------0-------|
4|---------------------------------------------------------------------|
5|---------------------------------------------------------------------|
6|---------------------------------------------------------------------|


1|--12---12---12-12-14---14~------14--14~---14--|
2|--15pb-15pb--0--0-17b--17b~---------17b~------|
3|-------------0--0-----------------------------|
4|----------------------------------------------|
5|----------------------------------------------|
6|----------------------------------------------|


1|--------------14-----14-----14-----14--------|
2|--17b---17b------17b----17b----17b----17b----|
3|---------------------------------------------|
4|---------------------------------------------|
5|---------------------------------------------|
6|---------------------------------------------|


1|------------------------------|
2|------------17pbr--15--17b----|
3|------------------------------|
4|------------------------------|
5|------------------------------|
6|------------------------------|

1|--14------------------------------------------|
2|-----15----------15--------15--------14-17-17-|
3|--------16--16-----16-16-----16-16------------|
4|----------------------------------------------|
5|----------------------------------------------|
6|----------------------------------------------|

1|-------------------19--------21b------|
2|------17--------19----19--------------|
3|---18---------------------------------|
4|--------------------------------------|
5|--------------------------------------|
6|--------------------------------------|


1|--21b--21p19-----19---------------------------------------|
2|--------------22----22p-19--------------------------------|
3|---------------------------21-19----19-21-21-19-------21b-|
4|---------------------------------21-------------21-21-----|
5|----------------------------------------------------------|
6|----------------------------------------------------------|


1|-----19---------------------------------19--|
2|---------22-19------------------------------|
3|---------------21br--(21)-19----------------|
4|-----------------------------21/12----------|
5|--------------------------------------------|
6|--------------------------------------------|


1|-----19--22p21p19-22p21p19-22p21p19-22p21p19-22p21p19-22b------------|
2|---------------------------------------------------------------------|
3|---------------------------------------------------------------------|
4|---------------------------------------------------------------------|
5|---------------------------------------------------------------------|
6|---------------------------------------------------------------------|


1|------22br--19-------17b-19---19-19-19-|
2|---------------------------------------|
3|---------------------------------------|
4|---------------------------------------|
5|---------------------------------------|
6|---------------------------------------|


1|--17b--19--19--18--17--16--15--14~--|
2|------------------------------------|
3|------------------------------------|
4|------------------------------------|
5|------------------------------------|
6|------------------------------------|


1|--------------------------14h-17-19-22-19~---|
2|-----17b-17-15-------------------------------|
3|----------------15/--------------------------|
4|---------------------------------------------|
5|---------------------------------------------|
6|---------------------------------------------|


1|-----14h-17-19h-22p-19-18-19h-22p-19-18-19h-22p-19-17-|
2|------------------------------------------------------|
3|------------------------------------------------------|
4|------------------------------------------------------|
5|------------------------------------------------------|
6|------------------------------------------------------|


1|--21---21br-----21b-----------------|
2|------------------------------------|
3|--------------------------24/(5)----|
4|--------------------------24/(5)----|
5|------------------------------------|
6|------------------------------------|


1|-----------7h-10p-7----7--7-------------|
2|-----7h-10----------10------------------|
3|----------------------------------------|
4|----------------------------------------|
5|----------------------------------------|
6|----------------------------------------|


1|--------------------------------------|
2|---------7-10-7---7-------------------|
3|-----7-9--------9----9b---9-7---------|
4|------------------------------9(9)~---|
5|--------------------------------------|
6|--------------------------------------|


 ______________________
| Leyenda              |
|                      |
|                      |
|                      |
| B   : Bend           |
| br  : Bend release   |
| p,h : Hammer         |
| ( ) : Nota Fantasma  |
| /   : Slide          |
| ~   : Vibrato        |
|                      |
|                      |
|______________________|

Saludos para la gente de Chulucns y la unp,
en especial para Matematk xD.
Suggest correction
Give kudos to tab author, rate the tab!
1 2 3 4 5
comments
print report bad tab
1 comment total.
0 reply
Poptop56 51 Apr 11, 2015 12:25 PM

Nice tab, I think the scale is in Bm Aeolian, Thanks for the help!

guest
You may want to rate the tab now too:
select rating
Wanna post a correction for this tab? Suggest correction