Oops, an error
Loading. Please wait.

Cuando Los Angeles Lloran Tab

version 6
version 6

Interactive

100 views 3 this week
2 commentsread comments
1 2 3 4 5
2 more votes to show rating
add to favorites
launch autoscroll
font size
0
reset
how to read this tab
guitar tuner
Autoscroll
slow
fast
+/-
esc
set tempo
stop
Help us to improve Ultimate-Guitar.com Take our survey!
×
Intro

e|--------0-2-4-2-0-------------0--|
B|-----5------------4-2-----2-0----|
G|----6---------------2---2--------|
D|---6------------------2----------|
A|--4------------------------------|
E|---------------------------------|


e|--------2-4-5-4-2-0-0---------------0-2-4-5-7-0-4-2-0---------|
B|-----2-----------------4-2--4--0-2-4-------------------4----5-|
G|---2-------------------------------------------------------6--|
D|----------------------------------------------------------6---|
A|---------------------------------------------------------4----|
E|--------------------------------------------------------------|


Este riff lo repite al final de cada estrofa:

e|---4-----5-----4-----5-4-------|
B|-----5-----5-----5-------7-5---|
G|-------4-----4-----4---------4-|
D|-------------------------------|
A|-------------------------------|
E|-------------------------------|


C#m                    B
  A chico Mendez lo mataron
                        A                     E
  era un defensor y un angel de toda la amazonia

C#m                    B
  el murió a sangre fría
                     A                     E
  lo sabía color de melo y tambien la policía

G#m                    C#m
  cuando los angeles lloran
                       A                         E
  lluvia cae sobre la aldea lluvia sobre el campanario

A
  pues alguien murió

Estribillo:
              E     B
   Un angel cayó,
A               E     B
   un angel murió,
A              E     B
   un angel se fué
A           E     B      A
   y no volverá

C#m                    B
  Cuando el asesino huía chico
              A                            E
  Méndez se moría la selva se ahogaba en llanto
C#m                    B
  el dejo dos lindos críos
                A
  una esposa valerosa
                     E
   y una selva en agonía
C#m                    B
  cuando los angeles lloran
                         A
  es por cada árbol que muere
                         E
  cada estrella que se apaga
 B
  oh no no no


Estribillo:
              E     B
   Un angel cayó,
A               E     B
   un angel murió,
A              E     B
   un angel se fué
A           E     B      A
   y no volverá


              E     B
   Un angel cayó,
A               E     B
   un angel murió,
A              E     B
   un angel se fué
A           E             B      A
   se fue volando en madrugada


C#                       A
  Cuando los angeles lloran

                        E
  Cuando los angeles lloran

    B
  lloverá
Suggest correction
Give kudos to tab author, rate the tab!
1 2 3 4 5
comments
print report bad tab
2 comments total.
0 reply
cybermendoza56 10 Dec 13, 2015 10:21 PM

Siento que deberia ser asi:

e|--------0-2-4-2-0-----------------0--------2-4-5-4-2-0---------------
B|-----5------------4--2-----2---0---------2--------------5--4-2-4-----
G|----6--------------------2------------2-----------------6------------
D|---6-------------------2--------------------------------6------------
A|--4------------------0----------------------------------4------------
E|-------------------------------4------2------------------------------

e|----------0-2-4-5-7------4-2-----------------------
B|---0-2-4-------------5--------5--4------5~~~-------
G|---------------------------------------6~~~--------
D|------------------6-------------------6~~~---------
A|---------------------4---0----2------4~~~----------
E|---------------------------------------------------

Asi es que yo me acuerde (si no es la unplugged :v)

0 reply
cybermendoza56 10 Dec 13, 2015 10:22 PM

Aunque lo demas esta bien :v

guest
You may want to rate the tab now too:
select rating
Wanna post a correction for this tab? Suggest correction