Oops, an error
Loading. Please wait.

Cuando Los Angeles Lloran Tab

version 7
version 7

Interactive

by Maná
103 views 1 this week
1 commentread comment
1 2 3 4 5
3 more votes to show rating
add to favorites
launch autoscroll
font size
0
reset
how to read this tab
guitar tuner
×
Best way to learn
"Cuando Los Angeles Lloran"
Autoscroll
slow
fast
+/-
esc
set tempo
stop
Pues esta es la version del Cd del mismo nombre, los pasados tabs
son versiones del unplugged por lo que deberian ir abajo, pero esta
es la version que pertenece aqui.


Intro:

1. -0-0-2-4-2-0-----------0------2-4-5-4-2-0--------|
2. -2-----------2-----2-0------2-----------2-4-2-4--|
3. -2---------------2--------2-------------2--------|
4. -2-------------2------------------------2--------|
5. -0-----------0--------------------------0--------|
6. ---------------------4----2----------------------|

1. -----------4-7---4-2----------0--|
2. -----4-5-7-----5-----5-4-----2---|
3. -4-6------------------------2----|
4. -------------6---0---------2-----|
5. ---------------4-----2----0------|
6. ---------------------------------|


Con flauta:

1. ------------------|------------------|---------|
2. 
Suggest correction
Give kudos to tab author, rate the tab!
1 2 3 4 5
comments
print report bad tab
1 comment total.
0 reply
cybermendoza56 10 Dec 13, 2015 05:34 PM

Siento que en lugar de ser:

(A)
e|---------
B|----0----
G|---2-----
D|--2------
A|-0-------
E|---------

(C#m)
e|---------
B|----5----
G|---6-----
D|--6------
A|-4-------
E|---------

Y hay tambien unas notas restantes pero es facil de averiguar cuales, pero lo demas esta bien

guest
You may want to rate the tab now too:
select rating
Wanna post a correction for this tab? Suggest correction