Oops, an error
Loading. Please wait.

Cuando Los Angeles Lloran (Unplugged) Tab

version 1
version 1

Whole song

by Maná
702 views 21 this week
no commentswrite comment
1 2 3 4 5
1 last vote to show rating
add to favorites
launch autoscroll
font size
0
reset
how to read this tab
guitar tuner
×
Best way to learn
"Cuando Los Angeles Lloran (unplugged)"
Autoscroll
slow
fast
+/-
esc
set tempo
stop
Mi primer aporte ;) :D

Nota:se hacen con el capodastro (capo) en el 2º traste
     Todos los acordes son con cejillos

Intro:

e|------4-------4------------|------5-------5-4-----|
B|-----5------5---7--5-2-----|-----5------5----7-4--|
G|----4-----4--------4-2-4---|----2-----2-----------|
D|---2-------------------6---|--------------------7-|
A|---------------------------|----------------------|
E|---------------------------|----------------------|

e|------4-------4------------|------5-------5-------------|
B|-----5------5---7--5-2-----|-----5------5-----5-4p2-4---|
G|----4-----4--------4-2-4---|----2-----2-----6-----------|
D|---2-------------------6---|----------------------------|
A|---------------------------|---------------2------------|
E|-------------------5-------|----------------------------|

e|----4---7p5-4---------2------2-|--------4-----------------------------|
B|---5----------7-5-4--4-----4---|----5-----7-5p4-----2------2----5---2-|
G|--4-----------------4----4-----|---6------------6p4------2----4---2---|
D|-2-----------------------------|--6--------------------2--------------|
A|-------------------2-----------|-4------------------------------------|
E|-------------------------------|--------------------5---------4---2---|

e|---2h4-4/5-4-2--------------|
B|--------------5-4/5--4p2-4--|
G|----------------------------|
D|----------------------------|
A|----------------2-----------|
E|----------------------------|

e|----4---7p5-4---------2------2-|--------4-----------------------------|
B|---5----------7-5-4--4-----4---|----5-----7-5p4-----2------2----5---2-|
G|--4-----------------4----4-----|---6------------6p4------2----4---2---|
D|-2-----------------------------|--6--------------------2--------------|
A|-------------------2-----------|-4------------------------------------|
E|-------------------------------|--------------------5---------4---2---|

e|---2h4-4/5-4-2--------------|
B|--------------5-4/5--4p2-4--|
G|----------------------------|
D|----------------------------|
A|----------------2-----------|
E|----------------------------|

e|-------------4-5--7-----4p2--------|--------------|
B|-------4-5-7------5--5-------5-4---|---------5p4--|
G|---4-6---------------4-------------|-------6------| (Fin del intro
D|-----------------------------------|-----6--------| quitar el capo).
A|-----------------------------2-----|---4----------|
E|------------------------5----------|--------------|


Riff 1:

e|-----0--0--0----0--0--0--0------0--0--0---0--0--0-----|
B|--0-0--0--0----0--0--0--0----0-0--0--0---0--0--0---0--|
G|-1-2--1--2--2-2--1--2--1--1-1-2--1--2---4--2--1---1---|
D|-------------------------------------------------4----|

Riff 2:

C#m               B           A          E
e|-4-4-4-4-----------------------------------|
B|-5-5-5-5-5-5-5/7-7-7-7-7-4-4/5--5-5-2-2-0--|
G|---------6-6-6/8-8-8-8-8-4-4/6--6-6-2-2-1--|


Riff 3:

e|-----0--0----0----0--0--0----|
B|--0-0--0----0----0--0--0-----|
G|-1-2--1--1-2--2-1--2--1--2-1-|


C#m                              Riff 4:   acá terminas el acorde i antes
a chico mendez lo mataron..     b|-4-5-7-  de hacer aser el otro acorde
                                g|-4-6-8-  ases el Riff q te deja en el
                                           mismo acorde q tienes q aser
B                               Riff 5:
era un defensor y un angel...   b|-2-4-5-
                                g|-2-4-6-


A                              Riff 3
De toda la amazonia    e|------0--0---0----0--0--0--0---|
                       b|--0--0--0---0----0--0--0--0----|
                       g|-1--2--1-1-2--2-2--1--2--1-2-1-|
C#m
el murio a sangre fria...   Riff 4

B
lo sabia color de melo...   Riff 5

A
 y tambien la policia...     Riff 6:
                         e|-4---5---4----5---|--4---5--4--5p4---|
                         B|--5---5---5----5--|---5---5--5----5--|
                         G|---4---4---4----4-|----4---4--4----4-|

Riff 7
e|--------|
B|-1-2-1--|
G|--------|
D|-1-2-1--|
A|--------|
                        Riff 8

                       B|-5-7-5--|
                       G|--------|
                       D|-6-7-6--|

G#7                 C#m
Cuando los angeles lloran

                               Riff 9

                               B|--2-5-4-2--|
                               G|-----------|
                     A         D|--2-6-4-2--|
Lluvia cae sobre la aldea


                      Riff 10
                    e|----7---7-|--7-9--7--|
                    B|-/9---9---|--9-10-9--|


                      E
Lluvia sobre el campanario

                     Riff 11
                    e|-11-12-14--11-12-14---|--19--|

                        B
pues alguien murio..

Coro:

Riff 12
              C#m
e|----------------------------------|
B|---------------5------------------|
G|--------------4-------------------|
D|-------------6--------------------|
A|------------4---------------------|
E|----------------------------------|
  Un angel cayo
   A                 E
e|---0---0-------------0---0--------|
B|--0-0-0-0-----------0-0-0-0-------|
G|-2---2---2---------1---1---1------|
D|----------------------------------|
A|-0--------------------------------|
E|-------------------0--------------|
         un angel murio
    B               C#m
e|----2---2-----------0---0---------|
B|---4-4-4-4---------0-0-0-0--------|
G|--4---4---4-------1---1---1-------|
D|----------------------------------|
A|--2-------------------------------|
E|------------------4---------------|
      un angel se fue
   A                 E
e|---0---0-------------0---0--------|
B|--0-0-0-0-----------0-0-0-0-------|
G|-2---2---2---------1---1---1------|
D|----------------------------------|
A|-0--------------------------------|
E|-------------------0--------------|
          Y no volvera
    B
e|----2---2------|
B|---4-4-4-4-----|
G|--4---4---4----|
D|---------------|
A|--2------------|


Riff 2


Riff 3


C#m                  B            Riff 4
Cuando el asesino huia
                    A             Riff 5
chico Mendez se moria
                    E             Riff 3
la selva se ahogaba en llanto

C#m                    B          Riff 4
El dejo dos lindos crios
                    A             Riff 5
una esposa valerosa
                     E            Riff 6
y una selva en agonia


Riff 7

G#7                      C#m       Riff 8
Cuando los angeles lloran
                    A              Riff 9
es por cada arbol que muere
                       E           Riff 10
cada estrella que se apaga
                B                  Riff 11
oh no noo no
                                   Riff 12
           C#m
Un angel cayo
A               E
  un angel murio
B                C#m
  un angel se fue
A              E
  Y no volvera     B

                                  Riff 12
           C#m
Un angel cayo
A               E
  un angel murio
B                C#m
  un angel se fue
A              E             B
se fue volando en madrugada

C#m
e|--------------|
b|----5-5---5-5-| x4
g|-6-6---6-6----|

e|----4-4---4-4-|
b|-5-5---5-5----| x2
g|--------------|

e|----5-5---5-5-|
b|-5-5---5-5----| x3
g|--------------|

e|----4-4---4-4---4-4-----|
b|-5-5---5-5---5-5---5----|
g|------------------------|

Solo:
e|----------------7-8-------|-------------------------|
b|---4-4h5-7-7s9-9---9-7----|--------7-7-9-7-5-4------|
g|--6-------------------9-8-|-8-8-8-9-----9-8-6-4-2-1-|
d|-6------------------------|-------------------------|

e|-----------------9--8--9--11-|
b|-----5-4------4-10--10-10-10-|
g|-------------6---------------|
d|6-6-6---6-6-7----------------|

e|-11-12-14-11-12-9-11--9-----------------------------------------|
b|--------------------12-12-10-9--10-9----------------------------|
g|------------------------------11----11-9-8-9--11-9-8--8--9-11-7-|
d|-------------------------------------------------------11-------|


C#m
Cuando los angeles lloran
A                    E
cuando los angeles lloran
      B
LLovera

C#m
Cuando los angeles lloran
A                    E
cuando los angeles lloran
      B
LLovera

C#m
Cuando los angeles lloran
A                    E
cuando los angeles lloran
      B
Llovera

C#m
Cuando los angeles lloran
A                    E
cuando los angeles lloran
      B
LLovera


Riff 1
eh eh eh oohhh no no no

hey hey hey hye


Riff 1
eh eh eh oohhh no no no

hey hey hey hye

G|--------------|
D|--7-9-7-6-7-6-|
A|--------------|

Hey!!!!!!

(solo de timbales)

G|--------------|
D|--7-9-7-6-7-6-|

Riff 1 x2

e|-----------4-4-4-----------4-4-4-----------------4-4-----------4-4-4-4-|
B|-----------5-5-5-----------5-5-5-----------5p4---5-5-----------5-5-5-5-|
G|-4-6-6-4-6-6-6-6-4-6-6-4-6-6-6-6-4-6-6-4-6-------6-6-4-6-6-4-6-6-6-6-6-|
D|---------------------------------------------------------------------6-|
A|---------------------------------------------------------------------4-|
E|---------------------------------------------------------------------4-|


espero q les a ya gustado

cualqier duda o reklamo xD 

un salu2 pal chinowy y pa los Mas Sueltos: del Pelao ya tu saes xD
Suggest correction
Give kudos to tab author, rate the tab!
1 2 3 4 5
comments
print report bad tab
guest
You may want to rate the tab now too:
select rating
Wanna post a correction for this tab? Suggest correction