Oops, an error
Loading. Please wait.

Cuando Los Angeles Lloran (Unplugged) Tab

version 2
version 2

Whole song

by Maná
184 views 1 this week
no commentswrite comment
1 2 3 4 5
3 more votes to show rating
add to favorites
×
Save as Personal and add changes to this tab that will be seen only by you. Learn more ›
×
You can save this tab as Personal to edit and correct it or add notes. All changes will be seen only by you. Learn more »
save as personal
new!
launch autoscroll
font size
0
reset
how to read this tab
guitar tuner
Autoscroll
slow
fast
+/-
esc
set tempo
stop
Por fin pude!

Esta canción es una de mis favoritas, la mejor del unplugged
y creo que es la mejor version que las anteriores por que las
otras tienen algunas cosas malas y les faltan cosas que anexarle
aqui les puse casi toda la canción solo algunas partesitas
que son con arpegios y no me dieron ganas de sacarlas.

Te la dedico Mª Alejandra,mi amor, Te amo tu eres mi angel.

La introducción va con un capodastro [capotraste]
en el segundo traste

Nota: Los acordes que puse arriba del tab en la introducción
se hacen con el capodastro pero ese no es su nombre por eso les
puse entreparentesis el nombre real de ese acorde.

Introducción:

     D(E)                        G(A)

e|------4-------4p2----------|------5-------5-2-----|
B|-----5------5------5-2-----|-----5------5-----4---|
G|----4-----4--------4-2-4---|----2-----2---------4-|
D|---2-------------------6---|----------------------|
A|---------------------------|----------------2-----|
E|-------------------3-------|---5------------------|

     D(E)                        G(A)

e|------4-------4p2----------|------5-------5-------------|
B|-----5------5------5-2-----|-----5------5-----5-4p2-4---|
G|----4-----4--------4-2-4---|----2-----2-----6-----------|
D|---2-------------------6---|----------------------------|
A|---------------------------|------------------2---------|
E|-------------------3-------|---5------------------------|

     D(E)             A(B)            Bm(C#m)

e|------4---7p5-4--------2-------2-|-----------4------------------------------|
B|-----5----------7-5---4------4---|------5------7-5p4-----2------2----5---2--|
G|----4----------------4-----4-----|-----6-------------6p4------2----4---2----|
D|---2-----------------------------|----6---------------------2---------------|
A|--------------------2------------|---4--------------------------------------|
E|---------------------------------|-----------------------5---------4---2----|


e|---2h4-5p4-2----------------|
B|--------------5-5--4p2-4----|
G|-------------------------(4)|
D|----------------------------|
A|----------------2-----------|
E|----------------------------|


     D(E)             A(B)            Bm(C#m)

e|------4---7p5-4--------2-------2-|-----------4------------------------------|
B|-----5----------7-5---4------4---|------5------7-5p4-----2------2----5---2--|
G|----4----------------4-----4-----|-----6-------------6p4------2----4---2----|
D|---2-----------------------------|----6---------------------2---------------|
A|--------------------2------------|---4--------------------------------------|
E|---------------------------------|-----------------------5---------4---2----|


e|---2h4-5p4-2----------------|
B|--------------5-5--4p2-4----|
G|----------------------------|
D|----------------------------|
A|----------------2-----------|
E|----------------------------|


e|-------------4-5--7-----4p2--------|--------------|
B|-------4-5-7------5--5-------5-4---|---------5p4--|
G|---4-6---------------4-------------|-------6------| (Fin de la introducción
D|------------------6----------------|-----6--------| quitar el capodastro).
A|-----------------------------2-----|---4----------|
E|---------------------4--5----------|--------------|


Riff 1:

e|-----0--0--0----0--0--0--0------0--0--0---0--0--0-----|
B|--0-0--0--0----0--0--0--0----0-0--0--0---0--0--0---0--|
G|-1-2--1--2--2-2--1--2--1--1-1-2--1--2---4--2--1---1---|
D|-------------------------------------------------4----|
A|------------------------------------------------------|
E|------------------------------------------------------|


Riff 2:

e|-4-4-4-4-----------------------------------|
B|-5-5-5-5-5-5-5/7-7-7-7-7-4-4/5--5-5-2-2-0--|
G|---------6-6-6/8-8-8-8-8-4-4/6--6-6-2-2-1--|
D|-------------------------------------------|
A|-------------------------------------------|
E|-------------------------------------------|


Riff 3:

e|-----0--0----0----0--0--0----|--------4---|
B|--0-0--0----0----0--0--0-----|--------5---|
G|-1-2--1--1-2--2-1--2--1--2-1-|------4-----|
D|-----------------------------|----6-------|
A|-----------------------------|--4---------|
E|-----------------------------|------------|


                      Riff 4
                      |---------|
                      |--4-5/7--|
                      |--4-6/8--|
                      |---------|
 C#m               B  |---------|
A chico Mendez lo mataron

                      Riff 5
                      |---------|
                      |--2-4/5--|
                      |--2-4/6--|
                      |---------|
                  A   |---------|
era un defensor y un angel

            E  Riff 3
de toda la amazonia


C#m               B Riff 4
el murio a sangre fria
                  A Riff 5
lo sabia a color de melo
            E
Y tambien la policia

Riff 6

e|--4---5---4--5p4----|--4---5--4--5p4----|
B|---5---5---5----5---|---5---5--5----5---|
G|----4---4---4----4--|----4---4--4----4--|
D|--------------------|-------------------|
A|--------------------|-------------------|
E|--------------------|-------------------|


Riff 7
e|--------|
B|-1-2-1--|
G|--------|
D|-1-2-1--|
A|--------|

                       Riff 8
                       e|--------|
                       B|-5-7-5--|
                       G|--------|
                       D|-6-7-6--|
                       A|--------|
G#m                 C#m
Cuando los angeles lloran

                         Riff 9
                       e|-----------|
                       B|--2-5-4-2--|
                       G|-----------|
                       D|--2-6-4-2--|
                       A|-----------|
                    A
lluvia cae sobre la aldea

                      Riff 10
                    e|----7---7-|--7-9--7--|
                    B|-/9---9---|--9-10-9--|
                    G|----------|----------|
                    D|----------|----------|
            E
sobre el campanario

                     Riff 11
                    e|-11-12-14--11-12-14---|--19--|
                    B|----------------------|------|
                    G|----------------------|------|
            B
pues alguien murio


Coro:

Riff 12
              C#m7
e|--------------0---0---------------|
B|-------------0-0-0-0--------------|
G|------------1---1---1-------------|
D|----------------------------------|
A|------------4---------------------|
E|----------------------------------|
  Un angel cayo
   A                 E
e|---0---0-------------0---0--------|
B|--0-0-0-0-----------0-0-0-0-------|
G|-2---2---2---------1---1---1------|
D|----------------------------------|
A|-0--------------------------------|
E|-------------------0--------------|
         un angel murio
    B               C#m7
e|----2---2-----------0---0---------|
B|---4-4-4-4---------0-0-0-0--------|
G|--4---4---4-------1---1---1-------|
D|----------------------------------|
A|--2-------------------------------|
E|------------------4---------------|
      un angel se fue
   A                 E
e|---0---0-------------0---0--------|
B|--0-0-0-0-----------0-0-0-0-------|
G|-2---2---2---------1---1---1------|
D|----------------------------------|
A|-0--------------------------------|
E|-------------------0--------------|
          Y no volvera
    B
e|----2---2------|
B|---4-4-4-4-----|
G|--4---4---4----|
D|---------------|
A|--2------------|
E|---------------|


Riff 2


Riff 3


C#m               B Riff 4
Cuando el asesino huia
              A  Riff 5
chico Mendez se moria
                  E   Riff 3
la selva se ahogaba en llanto

C#m                  B Riff 4
El dejo dos lindos crios
            A  Riff 5
una esposa valerosa
            E   Riff 6
y una selva en agonia


Riff 7

G#m                  C#m Riff 8
Cuando los angeles lloran
                  A  Riff 9
es por cada arbol que muere
                   E  Riff 10
cada estrella que se apaga
      B   Riff 11
oh no noo no


Riff 12
Un angel cayo

un angel murio

un angel se fue

Y no volvera
Riff 12
Un angel cayo

un angel murio

un angel se fue

se fue volando en madrugada


e|--------------|
B|--------------|
G|---6-6-9-9----| repetir
D|--------------|
A|--------------|
E|--------------|


e|-------4-4----|
B|---5-5-5-5----|
G|---6-6--------| repetir
D|--------------|
A|--------------|
E|--------------|

e|-------5-5----|
B|---5-5-5-5----|
G|---6-6--------| repetir
D|--------------|
A|--------------|
E|--------------|

e|---4-4-4-4----|
B|---5-5-5-5----|
G|--------------|
D|--------------|
A|--------------|
E|--------------|

Solo:

e|-------------------|-------7-8-----------|
B|---------4-5-7-7/9-|---7/9-----9-7-5-4---|
G|-------6-----------|---------------------|
D|-----6-------------|---------------------|
A|---4---------------|---------------------|
E|-------------------|---------------------|


e|-----------------------------------------|
B|---4-4-4--5-7--7-9--5-7--4-5--2-4-0------|
G|------------------------------------2-1--|
D|-----------------------------------------|
A|-----------------------------------------|
E|-----------------------------------------|


e|--------------------------9-8-11---------|
B|-----------5-4--------4------------------|
G|------------------5-6-----9-8-11---------|
D|--------------6-7------------------------|
A|---/6--6-6-------------------------------|
E|-----------------------------------------|


e|-11-12-14-11-12-9-11--9-----------------------------------------------|
B|--------------------12-10-12-9-10--9----------------------------------|
G|---------------------------------11--9-11-9-8-9--11-9-8--8-9-11-------|
D|-------------------------------------------------------11-------9/11--|
A|----------------------------------------------------------------------|
E|----------------------------------------------------------------------|


C#m7
Cuando los angeles lloran
A                  E
cuando los angeles lloran
      B7
LLovera

C#m7
Cuando los angeles lloran
A                  E
cuando los angeles lloran
      B7
LLovera

C#m7
Cuando los angeles lloran
A                  E
cuando los angeles lloran
      B7
LLovera


C#m7
Cuando los angeles lloran
A                  E
cuando los angeles lloran
      B7
LLovera


Riff 1
eh eh eh oohhh no no no

hey hey hey hye


Riff 1
eh eh eh oohhh no no no

hey hey hey hye


e|--------------|
B|--------------|
G|--------------|
D|--7-9-7-6-7-6-|
A|--------------|
E|--------------|

Hey!!!!!!

(solo de timbales)

e|--------------|
B|--------------|
G|--------------|
D|--7-9-7-6-7-6-|
A|--------------|
E|--------------|


Riff 1

Riff 1


e|-----------4-4-4-----------4-4-4-----------7-----4-4-----------4-4-4-4-|
B|-----------5-5-5-----------5-5-5-------------5---5-5-----------5-5-5-5-|
G|-4-6-6-4-6-6-6-6-4-6-6-4-6-6-6-6-4-6-6-4-6-----8-6-6-4-6-6-4-6-6-6-6-6-|
D|---------------------------------------------------------------------6-|
A|---------------------------------------------------------------------4-|
E|---------------------------------------------------------------------4-|


Correcciones, peticiones, dudas o cualquier mierd@ de guitarra
me pueden escribir a thecool_augusto@hotmail.


     *        *    *****    *******  ***   *****   *****
      *    *  *   *     *      *      *   **      *     *
    *  *  *   *  *   *   *     *      *   *      *   *   *
    *    *    *  *  * *  *     *      *   *      *  * *  *
    *    *    *  *   *   * *   *      *   *      *   *   *
    *         *   *     *  **  *      *   **      *     *
  ***       ***    *****    ****    *****  *****   *****   *


Otros tabs:

Silvio Rodriguez
Nicho hinojosa
...
Suggest correction
Give kudos to tab author, rate the tab!
1 2 3 4 5
comments
print report bad tab
guest
Wanna post a correction for this tab? Suggest correction