Oops, an error
Loading. Please wait.

Cuando Los Angeles Lloran (Unplugged) Tab

version 3
version 3

Whole song

by Maná
193 views 1 this week
no commentswrite comment
1 2 3 4 5
3 more votes to show rating
add to favorites
×
Save as Personal and add changes to this tab that will be seen only by you. Learn more ›
×
You can save this tab as Personal to edit and correct it or add notes. All changes will be seen only by you. Learn more »
save as personal
new!
launch autoscroll
font size
0
reset
how to read this tab
guitar tuner
Autoscroll
slow
fast
+/-
esc
set tempo
stop
>INTROe|--4---4---------5---5-4----|-4---4---------5---5----------
b|--5--5--7-5-2---5--5---7-4-|-5--5--7-5-2---5--5---5-4-2-4-
g|--4-4-----4-2-4-6-6--------|-4-4-----4-2-4-6-6---6--------
d|--------------6-----------7|-------------6----------------

e|-4-7-5-4-----2---2---4-----------0-------0------4-5-4--------------
b|-5-------7-5-4--4--5---7-5-4-----3---3-0----2-7-------7-5-5-4-2-4--   x2
g|-4-----------4-4---6---------6-4-3--3-----3------------------------
d|-------------------6-------------3-3-------------------------------

e|-----------4-5-7---4-2---------------
b|-----4-5-7-------5-----5-4----5h4m5--
g|-4-6-------------------------6-------
d|----------------------------6--------
a|---------------------------4---------

>riff 1e|---0--0--0--0----0--0--0--0----0--0--0--0----0--0--0--0-
b|--0--0--0--0----0--0--0--0----0--0--0--0----0--0--0--0--
g|-1--2--1--2--2-2--1--2--1--1-1--2--1--2--4-4--2--1--0---

>riff 2(flauta)e|-4-4-4-4-----------------------------------
b|-5-5-5-5-5-5-7--7-7-7-7-4-4-5--5-5-2-2-0-0-
g|---------6-6-8--8-8-8-8-4-4-6--6-6-2-2-1-1-
xsiak las notas son :
G#-G#-G#-G#-E-E-F#-F#-F#-F#-F#-Eb-Eb-E-E-E-C#-C#-B-B

>riff 3e|---0--0--0--0----0--0--0--0-
b|--0--0--0--0----0--0--0--0--
g|-1--2--1--2--2-2--1--2--1---

a chico mendez lo mataron...
riff 4:
e|-------
b|-4-5-7-
g|-4-6-8-

era un defensor y un angel...
riff 5:
e|-------
b|-2-4-5-
g|-2-4-6-

de toda la amazonia...
>riff 3riff 4riff 5e|-4--5--4--5b4--4--5--4--5b4---
b|--5--5--5----5--5--5--5----5--
g|---4--4--4----4--4--4--4----4-

C#m                     B
cuando los angeles lloran
                     A
lluvia cae sobre la aldea
                     B
lluvia sobre el campanario

>piano: Eb-E-F#-Eb-E-F#-Be|---4---4-----5---5-----4---4-----7---7---
b|--5-5-5-5---5-5-5-5---5-5-5-5---7-7-7-7-- x2
g|-6---6---6-6---6---6-4---4---4-8---8---8-

>riff 2(flauta)riff 3riff 4riff 5riff 3riff 4riff 5riff 6C#m                  B
cuando los angeles lloran...
                       A
es por cada arbol que muere...
       B
cada estrella que se apaga... o no no no
>pianoversos 'a'e|--------------
b|----5-5---5-5- x4
g|-6-6---6-6----

e|--------------
b|----9-9---9-9- x2
g|-9-9---9-9----

e|----------
b|----10-10- x3
g|-9-9------

e|-------------
b|--10-9-9-9-9-
g|-9--9--------


solo:
e|------------------7-9-------|-------------------------
b|---4-4h5-7-7s9-7s9---9-7----|--------8-8-9-7-5-4------
g|--6---------------------9-8-|-8-8-8-9-----9-8-6-4-2-1-
d|-6--------------------------|-------------------------

e|--------------------9-8-9-11-|-11-12-14-11-12-9-11--9-----------------------------------------------
b|------5-4-------4---9-9-9-10-|--------------------12-11-12-9-10-9-----------------------------------
g|---------------6-------------|-----------------------------------11-10-9-9-8-9-11-9-8-9-11----------
d|-6-6-6----6-6-7--------------|------------------------------------------------------------9s11-11s0-

cuando los angeles lloran... cuando los angeles lloran...llovera...
>bajog|------------------
d|-1-2-4-2-1-1h2m1--
a|----------------4-
E|------------------

>riff finalg|--------------
d|-9-11-11-9-11-
a|--------------  x3
E|--------------

g|-9-8-|-----------------
d|-----|-9-11-11-9-11----
a|-----|--------------9--
E|-----|---------------0-
Suggest correction
Give kudos to tab author, rate the tab!
1 2 3 4 5
comments
print report bad tab
guest
Wanna post a correction for this tab? Suggest correction