Oops, an error
Loading. Please wait.

Cuando Los Angeles Lloran (Unplugged) Bass Tab

version 1
version 1

Whole song

92 views 3 this week
no commentswrite comment
1 2 3 4 5
3 more votes to show rating
add to favorites
launch autoscroll
font size
0
reset
guitar tuner
×
Best way to learn
"Cuando Los Angeles Lloran (unplugged)"
Autoscroll
slow
fast
+/-
esc
set tempo
stop
Ki onda :):) bueno alli les mando esta canción bien chida
una de las mejores del unplugged, y me siento super realizado porque la saque
d oido y pues esta medio cabrona. asi que escuchenla bien para que la saquen
bien ;) Saludos a todos mis amigos y amigas..... marco :)

Primero se divaga el sergio con la guitarra y después entra el bajo con los
demás instrumentos

INTRO
G--------------------------------
D--------------------------------
A-4-----2--------0---------------
E--------------------------------
  C#    B        A
Y LUEGO ESTA FIGURA
G---------------------------------
D-------6-6--------99-------------
A--7--7-----77--7-----------------
E---------------------------------

VERSO1 (SE TOCA DOS VECES): Chico mendez lo mataron...
G---------------------------------
D---6--6------66-----4--4-----44--
A-4-----4--44-------2----2-22-----
E---------------------------------
  C#                B
G-------------------------------------------
D-----------------6-6------99-----6-6-----99-
A--7--7-------7--7---77--7----7--7---77-7----
E-5-----5--55--------------------------------

  A           E
PRE-CORO: Cuando los ángeles lloran
G---------------------------------------------
D---4--4-----44---6--6------66----------------
A-2-----2--22----4----4--44-----7--7------77--
E------------------------------5-----5--55----
  B              C#            A
G---------------------------------
D---9--9-----9-9---4--4-----4--4--
A-7-----77--7-----2----22--2------
E---------------------------------
  E               B
CORO: Un ángel calló...
G-------------------------------------------------
D--6--6-----6--6------------------9--9------99----
A-4----4--44-------7--7------77--7-----7--77------
E-----------------5-----5--55---------------------
  C#              A              E
G---------------------------------
D---------------------------------
A---9--9------99------------------
E--7----7--77---------------------
   B
DESPUES DEL CORO
G---------------------------------
D---------------------------------
A--4-----2--------0---------------
E---------------------------------
   C#    B        A
VERSO2 (IGUAL QUE EL VERSO1): Cuando el asesino huía...

INTERLUDE Y EN EL SOLO ( SE TOCA 2 VECES)

G-----------------------------------------
D-----------------------------------------
A--4----2----0---4------4----2---0----44--
E-----------------------------------------
   C#   B    A   C#     C#   B   A     C#
Cuando los ángeles lloran.... ( SOLO DE BAJO!!!!!!!!!!)
G-6-------6---7h9-----------
D---6--7------------9-------
A---------------------------
E---------------------------

G-99--11---88--99--6----6-----6--7h9--------
D-------------------------6--7-------11--9--
A-------------------------------------------
E-------------------------------------------

DESPUES SE SIGUE TOCANDO LO DEL CORO

ANTES Y DESPUES DE LAS PERCUSIONES
G-------------------------
D-------------------------
A-7---99---6--77-6--------
E-------------------------
Y LUEGO EL CORO
FIN             
G------------- ---------
D------------- ---------
A--0--44--0-4- ---4-----
E------------- ---------
Suggest correction
Give kudos to tab author, rate the tab!
1 2 3 4 5
comments
print report bad tab
guest
You may want to rate the tab now too:
select rating
Wanna post a correction for this tab? Suggest correction