Oops, an error
Loading. Please wait.

Cuando Los Angeles Lloran (Unplugged) Tab

version 5
version 5

Whole song

115 views 1 this week
no commentswrite comment
1 2 3 4 5
2 more votes to show rating
add to favorites
launch autoscroll
font size
0
reset
how to read this tab
guitar tuner
Autoscroll
slow
fast
+/-
esc
set tempo
stop
Help us to improve Ultimate-Guitar.com Take our survey!
×
 cej 2ºtraste

   D                   G                        D
e--2------2-0----------3--------3--2--0---------2--------2-0--------
b--3----3-----3--0-----3-----3-----------2------3-----3------3--0---
g--2--2-------2--0--2--0--0-----------------2---2--2---------2--0--2
d--0----------------4--0------------------------0------------------4
a----------------------2--------------------------------------------
e-------------------------------------------------------------------

   G                            D                    A          Bm
e--3--------3-------------------2--5--3--2-----------0--------0--2--
b--3-----3--------3--2/0--2-----3-----------5--3--2--2-----2-----3--
g--0--0--------0-------------2--2--------------------2--2--------4--
d--0----------------------------0--------------------2-----------4--
a--2----------------------------------------------------------------
e-------------------------------------------------------------------


e--2--------------------------------------0--2--3-------------------
b-----5--3--2--------0--------0-----3--------------0--3-2/0--2------
g--------------4--2--------0-----2-----0------------------------2---
d-----------------------0-------------------------------------------
a-----------------------------------0-------------------------------
e--------------------3-----------2-----0----------------------------

   D                    A          Bm
e--2--5--3--2-----------0--------0--2--2----------------------------
b--3-----------5--3--2--2-----2-----3-----5--3--2--------0--------0-
g--2--------------------2--2--------4--------------4--2--------0----
d--0--------------------2-----------4-----------------------0-------
a-------------------------------------------------------------------
e--------------------------------------------------------3----------


e-----------0--2--3-------------------------------------2--3--5--2--
b-----3--------------0--3--2/0--2--------------2--3--5--------3--3--
g--2-----0-------------------------2--0--2--4-----------------------
d-------------------------------------------------------------------
a-----0-------------------------------------------------------------
e--2-----0-------------------------------------------------------2--


e--2--0-------2-----------------------------------------------------
b--------3--2/3-----------------------------------------------------
g-------------4-----------------------------------------------------
d-------------4-----------------------------------------------------
a-------------------------------------------------------------------
e--3----------------------------------------------------------------


   C#m                B
   Chico mendez lo mataron
                        A
   era un defensor y un angel
                    E
   de toda la amazonia

   C#m                 B
   El murio a sangre fria
                       A
   lo sabia color de melo
                     E
   y tambien la policia

   G#m                C#m
   Cuando los angeles lloran
                          A
   lluvia cae sobre la aldea
                         E
   lluvia sobre el campanario
               B
   alguien murio

              C#m
   un angel cayo
   B          C#m
   un angel murio
   B           C#m
   un angel se fue
   A          E     B
   y no volvera

   C#m B A E

   C#m                B
   Cuando el asesino huia
                     A
   chico mendez se moria
                     E
   la selva se ahogaba en llanto

   C#                 B
   El dejo dos lindos crios
                   A
   una esposa valerosa
                   E
   y una selva en agonia

   G#                  C#m
   Cuando los angeles lloran
                         A
   es por cada arbol que muere
                        E
   cada estrella que se apaga
         B
   ohohno

             C#m
   un angel cayo
    B         C#m
   un angel murio
    B           C#m
   un angel se fue
   A      E   B
   y no volvera

            C#m
   un angel cayo
    B        C#m
   un angel murio
    B           C#m
   un angel se fue
   A                    E   B
   se fue volando en madrugada


   C#m
   Cuando los angeles lloran
     A                   E
   cuando los angeles lloran
         B
   llovera

   C#m
   Cuando los angeles lloran
     A                   E
   cuando los angeles lloran
         B
   llovera

   C#m
   Cuando los angeles lloran
     A                   E
   cuando los angeles lloran
         B
   llovera

   C#m
   Cuando los angeles lloran
     A                   E
   cuando los angeles lloran
         B
   llovera

 C#m
   Cuando los angeles lloran
     A                   E
   cuando los angeles lloran
         B
   llovera
Suggest correction
Give kudos to tab author, rate the tab!
1 2 3 4 5
comments
print report bad tab
guest
You may want to rate the tab now too:
select rating
Wanna post a correction for this tab? Suggest correction