Oops, an error
Loading. Please wait.

De Pies A Cabeza Bass

version 3
version 3

Whole song

Interactive

by Maná
33 views 1 this week
no commentswrite comment
1 2 3 4 5
3 more votes to show rating
add to favorites
launch autoscroll
font size
0
reset
guitar tuner
×
Best way to learn
"De Pies A Cabeza"
Autoscroll
slow
fast
+/-
esc
set tempo
stop
Maná
intro
E|--------------9-9-7777-------------|
A|--7777-----------------------------|
D|-------999-77----------999-77-6-7--|
G|-----------------------------------|

E|--------------9-9-7777/--|
A|--7777-------------------|
D|-------999-77------------|
G|-------------------------|

Quien te besara
E|--------------9-9-7777-------------|
A|--7777-----------------------------|x6
D|-------999-77----------999-77-6-7--|
G|-----------------------------------|

Quien te hara tripear
E|--------------9-9-7777-------------|
A|--7777--------------------------9--|x2
D|-------999-77----------999-77-6----|
G|-----------------------------------|

Hoy te quiero mas que siempre
E|--------------9-9-7777-------------|
A|--7777--------------------------9--|x3
D|-------999-77----------999-77-6----|
G|-----------------------------------|

E|--------------9-9-7777--------------|
A|--7777--------------------------97--|
D|-------999-77----------999-77-6-----|
G|------------------------------------|

quien sera tu sol...
E|-----------------|-----------------------|
A|--7--------------|-7---------------------|
D|-----7--9-----97-|----7---------9---9-7--|
G|-----------986---|--------9-8-6---6------|

Dime quien te quitara
E|--------------9-9-7777-------------|
A|--7777--------------------------9--|
D|-------999-77----------999-77-6----|
G|-----------------------------------|

E|------------------7777-------------|
A|--7777--------------------------9--|
D|-------999-77-6/7------999-77-6----|
G|-----------------------------------|

Tu mi religion
E|--------------9-9-7777-------------|
A|--7777--------------------------9--|
D|-------999-77----------999-77-6----|
G|-----------------------------------|

E|-----------------7777--|
A|--7777-----------------|
D|-------999-77-66-------|
G|-----------------------|

Hoy te quiero
E|--------------9-9-7777-------------|
A|--7777--------------------------9--|x2
D|-------999-77----------999-77-6----|
G|-----------------------------------|

Hoy te voy a besar
E|--------------9-9-7777-------------|
A|--7777-----------------------------|
D|-------999-77----------999-77-6-7--|
G|-----------------------------------|

de los pies a la cabeza
E|--------------9-9-7777---------------|
A|--7777--------------------------9-7--|
D|-------999-77----------999-77-6------|
G|-------------------------------------|

Silencio
E|----------|-5-5---5-|--7-----7-|-5-5------|
A|--7-7---7-|-----4---|----6-6---|-----4----|
D|------6---|---------|----------|-------4--|
G|----------|---------|----------|----------|

E|----------|---------|---------|-----------|
A|--7-7---7-|---------|---------|-----------|
D|------6---|-7-7---7-|-9-----9-|--7-7-6-4--|
G|----------|-----6---|---8-8---|-----------|
las dos ultimas lineas se repiten hasta el final x4

atte miauricio gatolar
Suggest correction
Give kudos to tab author, rate the tab!
1 2 3 4 5
comments
print report bad tab
guest
You may want to rate the tab now too:
select rating
Wanna post a correction for this tab? Suggest correction