Oops, an error
Loading. Please wait.

De Pies A Cabeza Bass

version 4
version 4

Whole song

Interactive

by Maná
53 views 1 this week
no commentswrite comment
1 2 3 4 5
3 more votes to show rating
add to favorites
×
Save as Personal and add changes to this tab that will be seen only by you. Learn more ›
×
You can save this tab as Personal to edit and correct it or add notes. All changes will be seen only by you. Learn more »
save as personal
new!
launch autoscroll
font size
0
reset
guitar tuner
Autoscroll
slow
fast
+/-
esc
set tempo
stop
Al otro tab le falto una parte aqui les va:
cuando se pone a gritar el fher y el arreglito que lleva.

Cuando dice: 'quien será tu sol..

g---------------9-8------------| 
d-----7---9----------11--9--7--|
a--7---------------------------|
e------------------------------| 

g---------------9-8--------------------| 
d-----7---9----------11--9--7----------|
a--7---------------------------11--9--7|
e--------------------------------------|

cuando va, te ire besando hasta los pies...
cambia el ritmo y el bajeo es asi:

g-------------------------------------------------|
d--------6----------------------------------------|
a--7-7-7---7----------4-----------6-----------4---|
e---------------5-5-5---5---7-7-7---7---5-5-5---5-|

g--------------------6------------8------------6---|
d--------6-----7-7-7---7----9-9-9---9----7-7-7---7-|
a--7-7-7---7---------------------------------------|
e--------------------------------------------------|

y luego ya sigue con el ritmo normal..
(el ritmo general de la cancion se encuentra en el otro tab
de bajo, este es un complemento)

ya estufas
dudas o peticiones jorgemery@
ahooorrense
Suggest correction
Give kudos to tab author, rate the tab!
1 2 3 4 5
comments
print report bad tab
guest
Wanna post a correction for this tab? Suggest correction