Oops, an error
Loading. Please wait.

Desapariciones Bass Tab

65 views 1 this week
no commentswrite comment
1 2 3 4 5
3 more votes to show rating
add to favorites
launch autoscroll
font size
0
reset
guitar tuner
Autoscroll
slow
fast
+/-
esc
set tempo
stop
Help us to improve Ultimate-Guitar.com Take our survey!
×
Empieza así:

G|-------------|---------------|---------------|---------------|
D|--------7-7--|----------7-7--|----------7-7--|----------7-7--|
A|------7------|--------7------|--------7------|--------7------|
E|-5-5---------|-0-5-5---------|-5-3-3---------|-0-5-5---------|


G|-------------|---------------|-------------|----------------|
D|--------7-7--|----------7-7--|----------7--|----------------|
A|------7------|--------7------|--------7----|-7-8-7-5-5------|
E|-5-5---------|-0-5-5---------|-5-3-3-------|-----------7-4--|

Ohhh...         ohhh...


G|--------------------|----------------------|
D|-------------7-7----|-5--------------------|
A|-----------7-----5--|---5-5-----5---7------|
E|-5--0-0-5-----------|-------7-----7---0-5--|
Ohh... oh..             yeh.. yeh...

G|--------------------|----------------------|
D|-------------7-7----|-5--------------------|
A|-----------7-----5--|---5-5-----5---7------|
E|----0-0-5-----------|-------7-----7---0-5--|
Yoh yoh yoh...

G|--------------------|----------------------|
D|-------------7-7----|-5--------------------|
A|-----------7-----5--|---5-5-----5---7------|
E|----0-0-5-----------|-------7-----7---0-5--|

Que alguien me diga si ha visto a mi esposo...preguntaba la doña

G|--------------------|----------------------|
D|-------------7-7----|-5--------------------|
A|-----------7-----5--|---5-5-----5---7------|
E|----0-0-5-----------|-------7-----7---0-1--|

Se llama Ernesto X tiene 40 años...


G|------------5-5----|--------5--5----------|
D|-----3--3-3-----3--|-5--5-5------5-5------|
A|-3-3---------------|-----------------3----|
E|-------------------|----------------------|

Trabaja e? celador en un negocio e? carros...

G|-----------------5-5----|--------5--5----------|
D|-3-3------3--3-3-----3--|-5--5-5------5-5------|
A|------3-3---------------|-----------------3----|
E|------------------------|----------------------|

Llevaba camisa oscura y pantalón claro...

G|-------------4-4-----|---------------------|
D|----2-2----2-----2---|---------------------|
A|---------------------|--------------7-7----|
E|-0------0------------|-5--0-0-5---5-----5--|

Salió anteanoche...    y no ha regresado...


G|----------------|----------------|
D|----7-7----7----|--5-------------|
A|-5------5----5--|-----5----------|
E|----------------|--------0-------|

Y no se ya qué pensar... pues esto antes no había pasado...


G|--------------------|----------------------|
D|-------------7-7----|-5--------------------|
A|-----------7-----5--|---5-5-----5---7------|
E|-5--0-0-5-----------|-------7-----7---0-5--|


Oh... oh... oh...             oh...

G|--------------------|----------------------|
D|-------------7-7----|-5--------------------|
A|-----------7-----5--|---5-5-----5---7------|
E|----0-0-5-----------|-------7-----7---0-5--|

Yo... yo... yo...


G|--------------------|----------------------|
D|-------------7-7----|-5--------------------|
A|-----------7-----5--|---5-5-----5---7------|
E|----0-0-5-----------|-------7-----7---0-5--|

Llevo tres días buscando a mi hermana...

G|--------------------|----------------------|
D|-------------7-7----|-5--------------------|
A|-----------7-----5--|---5-5-----5---7------|
E|----0-0-5-----------|-------7-----7---0-1--|

Se llama Altagracia igual que la abuela...


G|------------5-5----|--------5--5----------|
D|-----3--3-3-----3--|-5--5-5------5-5------|
A|-3-3---------------|-----------------3----|
E|-------------------|----------------------|

Salio del trabajo pa? la escuela...

G|-----------------5-5----|--------5--5----------|
D|-3-3------3--3-3-----3--|-5--5-5------5-5------|
A|------3-3---------------|-----------------3----|
E|------------------------|----------------------|

Llevaba unos jeans y una camisa clara...


G|-------------4-4-----|---------------------|
D|----2-2----2-----2---|---------------------|
A|---------------------|--------------7-7----|
E|-0------0------------|-5--0-0-5---5-----5--|

No ha sido el novio... el tipo está en su casa...


G|----------------|----------------|
D|----7-7----7----|--5-------------|
A|-5------5----5--|-----5----------|
E|----------------|--------0-------|

No saben de ella en la PSN... ni en el hospital...


G|--------------------|----------------------|
D|-------------7-7----|-5--------------------|
A|-----------7-----5--|---5-5-----5---7------|
E|-5--0-0-5-----------|-------7-----7---0-5--|


Oh... oh... oh...             oh... oh...

G|--------------------|----------------------|
D|-------------7-7----|-5--------------------|
A|-----------7-----5--|---5-5-----5---7------|
E|----0-0-5-----------|-------7-----7---0-5--|

oh... oh...

G|--------------------|----------------------|
D|-------------7-7----|-5--------------------|
A|-----------7-----5--|---5-5-----5---7------|
E|----0-0-5-----------|-------7-----7---0-5--|

Que alguien me diga si ha visto a mi hijo...

G|--------------------|----------------------|
D|-------------7-7----|-5--------------------|
A|-----------7-----5--|---5-5-----5---7------|
E|----0-0-5-----------|-------7-----7---0-1--|

Es estudiante de pre-medicina...


G|------------5-5----|--------5--5----------|
D|-----3--3-3-----3--|-5--5-5------5-5------|
A|-3-3---------------|-----------------3----|
E|-------------------|----------------------|

Se llama Agustín y es un buen muchacho...

G|-----------------5-5----|--------5--5----------|
D|-3-3------3--3-3-----3--|-5--5-5------5-5------|
A|------3-3---------------|-----------------3----|
E|------------------------|----------------------|

A veces es terco cuando opina...

G|-------------4-4-----|---------------------|
D|----2-2----2-----2---|---------------------|
A|---------------------|--------------7-7----|
E|-0------0------------|-5--0-0-5---5-----5--|

Lo han detenido... no sé qué fuerza...

G|----------------|----------------|
D|----7-7----7----|--5-------------|
A|-5------5----5--|-----5----------|
E|----------------|--------0-------|

Pantalón claro camisa a rayas... pasó anteayer...

G|---------------------|----------------------|
D|--------------7-7----|-5--------------------|
A|------------7-----5--|---5-5-----5---7------|
E|--5--0-0-5-----------|-------7-----7---0-5--|

Adónde van los desaparecidos... busca en el agua y en los matorrales...

G|--------------------|----------------------|
D|-------------7-7----|-5--------------------|
A|-----------7-----5--|---5-5-----5---7------|
E|----0-0-5-----------|-------7-----7---0-5--|

Y porqué es que se desaparecen... porque no todos somos iguales...


G|--------------------|----------------------|
D|-------------7-7----|-5--------------------|
A|-----------7-----5--|---5-5-----5---7------|
E|----0-0-5-----------|-------7-----7---0-5--|

Y cuándo vuelve el desaparecido... cada vez que lo trae el pensamiento...

G|--------------------|----------------------|
D|-------------7-7----|-5--------------------|
A|-----------7-----5--|---5-5-----5---7------|
E|----0-0-5-----------|-------7-----7---0-5--|

Cómo se le habla al desaparecido... con la emoción apretando por dentro...


G|--------------------|----------------------|
D|-------------7-7----|-5--------------------|
A|-----------7-----5--|---5-5-----5---7------|
E|----0-0-5-----------|-------7-----7---0-5--|

Oh... oh... oh...

G|--------------------|----------------------|
D|-------------7-7----|-5--------------------|
A|-----------7-----5--|---5-5-----5---7------|
E|----0-0-5-----------|-------7-----7---0-5--|

Oh... oh...

G|--------------------|----------------------|
D|-------------7-7----|-5--------------------|
A|-----------7-----5--|---5-5-----5---7------|
E|----0-0-5-----------|-------7-----7---0-5--|

Clara Clara Clara Quiñónez se llama mi madre...

G|--------------------|----------------------|
D|-------------7-7----|-5--------------------|
A|-----------7-----5--|---5-5-----5---7------|
E|----0-0-5-----------|-------7-----7---0-1--|

Ella es un alma de Dios no se mete con nadie...


G|------------5-5----|--------5--5----------|
D|-----3--3-3-----3--|-5--5-5------5-5------|
A|-3-3---------------|-----------------3----|
E|-------------------|----------------------|

Y se la han llevado de testigo...

G|-----------------5-5----|--------5--5----------|
D|-3-3------3--3-3-----3--|-5--5-5------5-5------|
A|------3-3---------------|-----------------3----|
E|------------------------|----------------------|

Por un asunto que es nada más conmigo...

G|-------------4-4-----|---------------------|
D|----2-2----2-----2---|---------------------|
A|---------------------|--------------7-7----|
E|-0------0------------|-5--0-0-5---5-----5--|

Y fui a entregarme hoy por la tarde...

G|----------------|----------------|
D|----7-7----7----|--5-------------|
A|-5------5----5--|-----5----------|
E|----------------|--------0-------|

Y ahora dizque no saben quién se la llevó del cuartel...

G|-------------|---------------|-------------|----------------|
D|--------7-7--|----------7-7--|----------7--|----------------|
A|------7------|--------7------|--------7----|-7-8-7-5-5------|
E|-5-5---------|-0-5-5---------|-5-3-3-------|-----------7-4--|


G|---------------------|----------------------|
D|--------------7-7----|-5--------------------|
A|------------7-----5--|---5-5-----5---7------|
E|--5--0-0-5-----------|-------7-----7---0-5--|

Anoche escuché varias explosiones... un tupata un tupete...

G|--------------------|----------------------|
D|-------------7-7----|-5--------------------|
A|-----------7-----5--|---5-5-----5---7------|
E|----0-0-5-----------|-------7-----7---0-1--|

Un tiro de escopeta y de revólver...


G|------------5-5----|--------5--5----------|
D|-----3--3-3-----3--|-5--5-5------5-5------|
A|-3-3---------------|-----------------3----|
E|-------------------|----------------------|

Carros acelerados... menos gritos...

G|-----------------5-5----|--------5--5----------|
D|-3-3------3--3-3-----3--|-5--5-5------5-5------|
A|------3-3---------------|-----------------3----|
E|------------------------|----------------------|

Eco de fondas en la calle...

G|-------------4-4-----|---------------------|
D|----2-2----2-----2---|---------------------|
A|---------------------|--------------7-7----|
E|-0------0------------|-5--0-0-5---5-----5--|

Toque de puertas... pordioses... platos rotos...

G|----------------|----------------|
D|----7-7----7----|--5-------------|
A|-5------5----5--|-----5----------|
E|----------------|--------0-------|

Estaban dando la telenovela... por eso nadie miró pa? afuera...


G|---------------------|----------------------|
D|--------------7-7----|-5--------------------|
A|------------7-----5--|---5-5-----5---7------|
E|--5--0-0-5-----------|-------7-----7---0-5--|

Adónde van los desaparecidos... busca en el agua y en los matorrales...

G|--------------------|----------------------|
D|-------------7-7----|-5--------------------|
A|-----------7-----5--|---5-5-----5---7------|
E|----0-0-5-----------|-------7-----7---0-5--|

Y porqué es que se desaparecen... porque no todos somos iguales...


G|--------------------|----------------------|
D|-------------7-7----|-5--------------------|
A|-----------7-----5--|---5-5-----5---7------|
E|----0-0-5-----------|-------7-----7---0-5--|

Y cuándo vuelve el desaparecido... cada vez que lo trae el pensamiento...

G|--------------------|----------------------|
D|-------------7-7----|-5--------------------|
A|-----------7-----5--|---5-5-----5---7------|
E|----0-0-5-----------|-------7-----7---0-5--|

Cómo se le habla al desaparecido... con la emoción apretando por dentro...


G|--------------------|----------------------|
D|-------------7-7----|-5--------------------|
A|-----------7-----5--|---5-5-----5---7------|
E|----0-0-5-----------|-------7-----7---0-5--|

Oh... oh... oh...

G|--------------------|----------------------|
D|-------------7-7----|-5--------------------|
A|-----------7-----5--|---5-5-----5---7------|
E|----0-0-5-----------|-------7-----7---0-5--|

Oh... oh...


G|--------------------|----------------------|
D|-------------7-7----|-5--------------------|
A|-----------7-----5--|---5-5-----5---7------|
E|----0-0-5-----------|-------7-----7---0-5--|

Oh... oh... oh...

G|--------------------|----------------------|
D|-------------7-7----|-5--------------------|
A|-----------7-----5--|---5-5-----5---7------|
E|----0-0-5-----------|-------7-----7---0----|

Oh... oh...


G|-------------|---------------|-------------|----------------|
D|--------7-7--|----------7-7--|----------7--|----------------|
A|------7------|--------7------|--------7----|-7-8-7-5-5------|
E|-5-5---------|-0-5-5---------|-5-3-3-------|-----------7-4--|


FIN
Suggest correction
Give kudos to tab author, rate the tab!
1 2 3 4 5
comments
print report bad tab
guest
You may want to rate the tab now too:
select rating
Wanna post a correction for this tab? Suggest correction