Oops, an error
Loading. Please wait.

Dime Luna Bass

version 2
version 2

Whole song

by Maná
50 views 1 this week
no commentswrite comment
1 2 3 4 5
3 more votes to show rating
add to favorites
launch autoscroll
font size
0
reset
guitar tuner
×
Best way to learn
"Dime Luna"
Autoscroll
slow
fast
+/-
esc
set tempo
stop
Intro
E|-----|----|
A|--3--|-3--|
D|-----|----|
G|-----|----|

Dime Luna
E|-------------------------|---------------------33------|
A|--3--------2-5-----------|-3-----------5----------0-2--|
D|-----2-5-2------3-5--3-5-|----2-5----5----3-5----------|
G|-------------------------|--------4--------------------|

E|-------------------------|---------------------------|
A|--3--------2-5-----------|-3-----------5-------------|
D|-----2-5-2------3-5--3-5-|----2-5----5----77777-5/0--|
G|-------------------------|--------4------------------|

E|-------------------------|---------------------33------|
A|--3--------2-5-----------|-3-2---------5----------0-2--|
D|-----2-5-2------3-5--3-5-|----2-5----5----3-5----------|
G|-------------------------|--------4--------------------|

E|-------------------------|---------------------------|
A|--3--------2-5-----------|-3-----------5-------------|
D|-----2-5-2------3-5--3-5-|----2-5----5----77777-5/0--|
G|-------------------------|--------4------------------|

Ya cambie de mundo
E|--1------|--------|-------------------|------------------------|
A|---3-----|-33-----|-------------------|-------3-0-----3-0------|
D|----3--3-|----2-5-|-2-5--------77-----|---5-3-----3-4-----4-5--|
G|-----2---|--------|-----2-4-5-----5-9-|-2----------------------|

Ahi esta la Luna

E|--3------|-----------|--------------|
A|---3-----|-2h3-------|--------------|
D|-----2-5-|-----2-5---|-333/0-555/0--|
G|---------|---------4-|--------------|

E|--3------|-------------|--------------|
A|---3-----|-2h3---------|--------------|
D|-----2-5-|-----2---4/5-|-333/0-555/0--|
G|---------|------2/4----|--------------|

E|--5--0-5-0--0-5-3-----5---|--5------5--3--|
A|------------------3-2---5-|-5-5--5-5-5----|
D|--------------------------|---------------|
G|--------------------------|---------------|

Intermedio
E|----------|-333------|
A|----------|-----0-2--|
D|--5555555-|----------|
G|----------|----------|

E|--------------------------|----------------0/3--|
A|--3--------2-5------------|-3-3---------5-------|
D|-----2-5-2------3-5--33-5-|----2-5----5---------|
G|--------------------------|--------4------------|

Estrofa

Precoro

Coro

Coro (Antes de empezar este se toca)
Ahista...
E|----------|
A|----------|
D|--555555--|
G|----------|

Coro

Para Terminar
E|------|-------------|---------------|
A|--0/3-|-------------|----------5-3--|
D|------|-333/0-555/0-|-333/0-555-----|
G|------|-------------|---------------|

Bueno ahi les fue el tema dime luna de mana
espero que lo aprovechen
cualquier critica a mi correo atte miauri
Suggest correction
Give kudos to tab author, rate the tab!
1 2 3 4 5
comments
print report bad tab
guest
You may want to rate the tab now too:
select rating
Wanna post a correction for this tab? Suggest correction