Oops, an error
Loading. Please wait.

Donde Jugarán Los Niños Chords

version 2
version 2

Whole song

by Maná
109 views 1 this week
no commentswrite comment
1 2 3 4 5
3 more votes to show rating
add to favorites
launch autoscroll
font size
0
reset
transpose
0
reset
display chords
guitar tuner
×
Best way to learn
"Donde Jugarán Los Niños"
Autoscroll
slow
fast
+/-
esc
set tempo
stop
D: Bm         = 2 2 4 4 3 2
D: D          = X 0 0 2 3 2
D: A          = 0 0 2 2 2 0
D: F#         = 2 4 4 3 2 2
D: G          = 3 2 0 0 0 3


INTRO

    Bm        D                A           F#

E -------0--------------7--5--------0----------------
B ---------3---------------------------0---------2--2
G -----4-------------7-----------2---------------4--3
D -----------------7-------------------------2-------
A --2----------2/5-------------0---------------------
E -----------------------------------------2---------

    Bm        D                A           F#

E -------0--------------7--5--------0----------------
B ---------3---------------------------0-------------
G -----4-------------7-----------2-------------------
D -----------------7---------------------------------
A --2----------2/5-------------0---------------------
E -----------------------------------------2---------

  F#

E ---------------------------------------------------
B ---------------------------------------------------
G -4/6--6p4-2---4/6--6p4-2---------------------------
D ---------------------------------------------------
A ---------------------------------------------------
E ---------------------------------------------------


Bm          D            A        F#  
Cuenta el abuelo que de ni~o el jugo
      Bm         D            A          F# 
entre arboles y risas y alcatraces de color.
Bm           D          A            F#      
Recuerda un rio transparente y sin olor
      Bm         D           A           F#  
donde abundaban peces no sufrian ni un dolor.


Cuenta el abuelo de un cielo de muy azul
donde volo papalotes que el mismo construyo
El tiempo paso y nuestro viejo ya murio
y hoy me pregunte despues de tanta destruccion...


G       A          Bm     
Donde diablos jugaran 
G           A     D  F# G
los pobres ni~os? ay ay ay! 
    A         Bm  
en donde jugaran?
G                         F#
se esta pudriendo el mundo
             Bm   D A F# 
ya no hay lugar.


La Tierra esta a punto de partise en dos
el cielo ya se ha roto, ya se ha roto de dolor
la mar vomita rios de aceite sin cesar
y hoy me pregunte despues de tanta destruccion...


Donde diablos jugaran 
los pobres ni~os? ay ay ay! 
en donde jugaran?
se esta pudriendo el mundo
ya no hay lugar.
Suggest correction
Give kudos to tab author, rate the tab!
1 2 3 4 5
comments
print report bad tab
guest
You may want to rate the tab now too:
select rating
Wanna post a correction for this tab? Suggest correction