Oops, an error
Loading. Please wait.

Donde Jugarán Los Niños Bass Tab

version 1
version 1

Whole song

131 views 1 this week
no commentswrite comment
1 2 3 4 5
3 more votes to show rating
add to favorites
launch autoscroll
font size
0
reset
guitar tuner
Autoscroll
slow
fast
+/-
esc
set tempo
stop
Help us to improve Ultimate-Guitar.com Take our survey!
×
Me encanta

Intro
E|----|-----|-5-5--5-2-|---|-----|-5-5----2--|
A|--2-|-245-|----4-----|-2-|-245-|----4/7----|
D|----|-----|----------|---|-----|-----------|
G|----|-----|----------|---|-----|-----------|

Cuenta el abuelo
E|----|-----|-5-5--5-2-|---|-----|-5-5----2--|
A|--2-|-245-|----4-----|-2-|-245-|----4/7----|x4
D|----|-----|----------|---|-----|-----------|
G|----|-----|----------|---|-----|-----------|

Donde diablos jugaran
E|--3-|-5-|-7-757-7757-|-3-|-5-|-5-----3-5-|-7-757-7757-|-3-33-|-2222--|
A|----|---|------------|---|---|--5-54-----|------------|------|-------|
D|----|---|------------|---|---|-----------|------------|------|-------|
G|----|---|------------|---|---|-----------|------------|------|-------|

E|----|-----|-5-5--5-2-|---|-----|-5-5----2--|
A|--2-|-245-|----4-----|-2-|-245-|----4/7----|
D|----|-----|----------|---|-----|-----------|
G|----|-----|----------|---|-----|-----------|

la tierra
E|----|-----|-5-5--5-2-|---|-----|-5-5----2--|
A|--2-|-245-|----4-----|-2-|-245-|----4/7----|x2
D|----|-----|----------|---|-----|-----------|
G|----|-----|----------|---|-----|-----------|

Donde diablos jugaran
E|--3-|-5-|-7-757-7757-|-3-|-5-|-5-----3-5-|-7-757-7757-|-3-33-|-2222--|
A|----|---|------------|---|---|--5-54-----|------------|------|-------|
D|----|---|------------|---|---|-----------|------------|------|-------|
G|----|---|------------|---|---|-----------|------------|------|-------|

E|----|-----|-5-5--5-2-|---|-----|-5-5----2--|
A|--2-|-245-|----4-----|-2-|-245-|----4/7----|x2
D|----|-----|----------|---|-----|-----------|
G|----|-----|----------|---|-----|-----------|

Donde diablos jugaran
E|--3-|-5-|-7-757-7757-|-3-|-5-|-5-----3-5-|-7-757-7757-|-3-33-|-2222--|
A|----|---|------------|---|---|--5-54-----|------------|------|-------|
D|----|---|------------|---|---|-----------|------------|------|-------|
G|----|---|------------|---|---|-----------|------------|------|-------|

E|----|-----|---|--------|
A|--2-|-245-|---|-----4--|
D|----|-----|-7-|-4-2----|
G|----|-----|---|--------|

E|-----|-----|--5-|--------|
A|--22-|-245-|-5--|------4-|x4
D|-----|-----|----|-74-2---|
G|-----|-----|----|--------|

E|-----|------|--55-|--------|
A|--22-|-2455-|-5---|------4-|x4
D|-----|------|-----|-74-2---|
G|-----|------|-----|--------|

atte. miauricio gatolar
Suggest correction
Give kudos to tab author, rate the tab!
1 2 3 4 5
comments
print report bad tab
guest
You may want to rate the tab now too:
select rating
Wanna post a correction for this tab? Suggest correction