Oops, an error
Loading. Please wait.

Donde Jugarán Los Niños Bass

version 2
version 2

Whole song

by Maná
49 views 1 this week
no commentswrite comment
1 2 3 4 5
3 more votes to show rating
add to favorites
launch autoscroll
font size
0
reset
guitar tuner
×
Best way to learn
"Donde Jugarán Los Niños"
Autoscroll
slow
fast
+/-
esc
set tempo
stop
bueno ps aki les traigo la kancion de
donde jugaran los niños de la version
de arde el cielo el nuevo disko de mana
esta cancion es mui buena
y muy facil exepto en algunas partes
espero ke ste bien =S

Intro
E|-----------|-----------|
A|--22--454-2|--22--454-2|
D|-----------|-----------|
G|-----------|-----------|

E|-----------|--55--5---2|
A|--22--454-2|----4------|
D|-----------|-----------|
G|-----------|-----------|

E|-----------|--7-7-7--7---4-|
A|--24--676-4|--------6------|
D|-----------|---------------|
G|-----------|---------------|


Cuenta el abuelo
E|-------------|-5(4)-52(4)-|-------------|-5-5/2(4)---|
A|--2(4)-45(4)-|------------|-2(4)-4/5(4)-|------------|x2
D|-------------|------------|-------------|------------|
G|-------------|------------|-------------|------------|

Cuenta mi abuelo
E|-------------|-5(4)-5/2(4)-|-------------|-5-52(4)----|
A|-2(4)-4/5(4)-|-------------|--2(4)-45(4)-|------------|x2
D|-------------|-------------|-------------|------------|
G|-------------|-------------|-------------|------------|


Donde diablos jugaran
E|--3-|-5-|-7-757-7-757-|-3-|-5-|------------3|-5-|
A|----|---|-------------|---|---|--5-554-542--|---|
D|----|---|-------------|---|---|-------------|---|
G|----|---|-------------|---|---|-------------|---|

E|-7-757-7-757-|-3-|-2222-|
A|-------------|---|------|
D|-------------|---|------|
G|-------------|---|------|

E|-------------|-5(4)-52(4)-|-------------|-5-5/2(4)---|
A|--2(4)-45(4)-|------------|-2(4)-4/5(4)-|------------|
D|-------------|------------|-------------|------------|
G|-------------|------------|-------------|------------|

La tierra
E|-------|-------|-5555----2222-|------|--------|-5555-------2222--|
A|--2222-|-45555-|--------4-----|-2222-|-4/5555-|----------4-------|x2
D|-------|-------|--------------|------|--------|------------------|
G|-------|-------|--------------|------|--------|------------------|

Donde diablos jugaran
E|--3-|-5-|-7-757-7-757-|-3-|-5-|------------3|-5-|
A|----|---|-------------|---|---|--5-554-542--|---|
D|----|---|-------------|---|---|-------------|---|
G|----|---|-------------|---|---|-------------|---|

E|-7-757-7-757-|-3-|-2222-|
A|-------------|---|------|
D|-------------|---|------|
G|-------------|---|------|

Solo:
E|-------|-------|-555-5--2222-|------|--------|-555-5--2222--|
A|--2222-|-45555-|----4--------|-2222-|-4/5555-|----4---------|x2
D|-------|-------|-------------|------|--------|--------------|
G|-------|-------|-------------|------|--------|--------------|


Donde diablos jugaran
E|--3-|-5-|-7-757-7-757-|-3-|-5-|aki se kalla todo
A|----|---|-------------|---|---|exepto la bateria
D|----|---|-------------|---|---|y la gente kanta
G|----|---|-------------|---|---|luego viene

E|-0//7-757-7-757-|-3-|-2222-|
A|----------------|---|------|
D|----------------|---|------|
G|----------------|---|------|

y yo me undo en soledad...          _ _
E|----------55----2|--55-5--2|         |
A|--22--454----22--|----4----|         |
D|-----------------|---------| x2      |
G|-----------------|---------|         |
                                       |---x3 creo xD
E|----------77----4|--7-7-7--7---4-|   |
A|--24--676----44--|--------6------|   |
D|-----------------|---------------|x2 |
G|-----------------|---------------|   |
                                    _ _|
para ser mas exacto asta ke se akaba el sonido

siii.!!
E|------------------|-55555---222222-|
A|--222222--4555555-|------4---------|
D|------------------|----------------|x2
G|------------------|----------------|

E|-------------------|-55555---222222-|
A|--222222--4/555555-|------4---------|
D|-------------------|----------------|
G|-------------------|----------------|

E|-------|-------|-555----2222-|
A|--2222-|-45555-|----4--------|
D|-------|-------|-------------|
G|-------|-------|-------------|

Final
E|----------55---|
A|--22--454----22|
D|---------------|
G|---------------|

este es uno de mis primeros tabs
pero kreo ke kedo bien
Suggest correction
Give kudos to tab author, rate the tab!
1 2 3 4 5
comments
print report bad tab
guest
You may want to rate the tab now too:
select rating
Wanna post a correction for this tab? Suggest correction