Oops, an error
Loading. Please wait.

El Antifaz Tab

41 views 1 this week
no commentswrite comment
1 2 3 4 5
3 more votes to show rating
add to favorites
launch autoscroll
font size
0
reset
how to read this tab
guitar tuner
Autoscroll
slow
fast
+/-
esc
set tempo
stop
Help us to improve Ultimate-Guitar.com Take our survey!
×
"antifas" QUE TEMAZO EL QUE LES ESTOY POR MANDAR NO CREN
EN REALIDAD ESTA MUY BUENO ASI QUE AHI LES VA:
=============================COMIENZO==========================
INTRO:(Am D C)
(A LOS ACORDES AGANLOS EN FORMA DE "quintas")

VERSOS:
Am
Le dicen el Marrano y no entiende porqué?
                                Am D C
Si dice ser un simple ser humano
 Am
Es un cochino, un mezquino, de la sociedad
                                      Am D C
Te vende armas, drogas y demás suciedad.

 Am
Ven aquí, ven a mi, el te va decir
                                     Am D C
Te va arrancar el alma y las costillas
 Am
Corrupción, ambición y degeneración
                                  Am D C
Pero dice él que tiene buena cara.

PREOCORO:
E
No dejes que te engañe

No dejes que te apañe
G                              E
Quítale la máscara y el antifaz

CORO:
 Am                F
Que habrá detrás de su antifaz?
       C                       G
Bajo de su piel, qué es lo que tendrá?
 Am                      F
Qué habrá detrás de su antifaz?
  C           E
No te dejes engañar!

INTRO:(Am)   (D C)
(CON LOS MISMOS ACORDES DE LOS VERSOS)

Le dicen Zorra y no entiende por qué?
Si dice ser un simple ser humano
Ven aqui, ven a mi, te quiere seducir
Te va a sacar la plata y los ojos.

PREOCORO:
E
No dejes que te engañe

No dejes que te apañe
G                              E
Quítale la máscara y el antifaz

CORO:
 Am                F
Que habrá detrás de su antifaz?
       C                       G
Bajo de su piel, qué es lo que tendrá?
 Am                      F
Qué habrá detrás de su antifaz?
  C           E
No te dejes engañar!

SOLO:
 (CON DISTORCIÓN)
1.------------------------------|
2.-5b-5-5-5-5-5b-6-6-6-6-5-3-5v-|
3.------------------------------|
4.------------------------------|
5.------------------------------|
6.------------------------------|

1.---------------------------|
2.---------------------------|
3.------4b------5b-------3b--|
4.-2v-4----2v-4----2v-4------|
5.---------------------------|
6.---------------------------|

|------------------------------11-11-11-11-11-11--9-9-9-7-7-7vr-|
|---------------------------------------------------------------|
|-11v-9-9-9-9-9-11v-9-9-9-9-9-----------------------------------|
|---------------------------------------------------------------|
|---------------------------------------------------------------|
|---------------------------------------------------------------|

 (Am)
Am
Le dicen Buitre y no entiende por qué?
                                   Am D C
Si dice ser un simple ser humano
Am
Ven aqui, ven a mi, el te va a decir
                                      Am D C
Te va picotear los sueños y el cráneo


PREOCORO:
E
No dejes que te engañe

No dejes que te apañe
G                              E
Quítale la máscara y el antifaz

CORO:
 Am                F
Que habrá detrás de su antifaz?
       C                       G
Bajo de su piel, qué es lo que tendrá?
 Am                      F
Qué habrá detrás de su antifaz?
  C           E
No te dejes engañar!

 Am D C
A un lado, marrano!
A un lado, marrano!

 (Am D C)
==============================FIN===============================
BUENO AMIGOS AHI ESTA "completa" OK "practiquen CHAÚ.

LEANDRO_TRANSCRIPCIONES@  20/01/06  19/34hs
CHAÚ!!!!!!
Suggest correction
Give kudos to tab author, rate the tab!
1 2 3 4 5
comments
print report bad tab
guest
You may want to rate the tab now too:
select rating
Wanna post a correction for this tab? Suggest correction