Oops, an error
Loading. Please wait.

El Celoso Bass Tab

42 views 1 this week
no commentswrite comment
1 2 3 4 5
3 more votes to show rating
add to favorites
launch autoscroll
font size
0
reset
guitar tuner
Autoscroll
slow
fast
+/-
esc
set tempo
stop
Help us to improve Ultimate-Guitar.com Take our survey!
×
Aqui les mando el bajo de esta excelente cancion de Maná

Intro

G|-----------|-----------|-----------|-----------|
D|----2-2-5--|----2-2-5--|-----------|-----------|
A|-3---------|-3---------|----2-2-5--|----2-2-3--|
E|-----------|-----------|-3---------|-3---------|


G|--------2--|-----------|---------|-----------|
D|----4-4----|----4-4----|---------|-----------|
A|-5---------|-5------5--|----2-5--|----2-2-5--|
E|-----------|-----------|-3-------|-3---------|


Verso 1


G|-----------|----------|--------2-|--------2-|
D|-----------|----------|----4-4---|----4-4---|
A|----2-2-5--|----2-2-3-|-5--------|-5--------|
E|-3---------|-3--------|----------|----------|

Si no estás conmigo... nada importa...


G|------2---2--|------2---2--|-----------|-----------|
D|----4---4----|----4---4----|-----------|-----------|
A|-5-----------|-5-----------|----2-2-5--|----2-2-5--|
E|-------------|-------------|-3---------|-3---------|


el vivir sin verte... es morir...


G|-----------|----------|--------2-|--------2-|
D|-----------|----------|----4-4---|----4-4---|
A|----2-2-5--|----2-2-3-|-5--------|-5--------|
E|-3---------|-3--------|----------|----------|


Si no estás conmigo... ay tristeza...


G|------2---2--|------2---2--|-----------|------------|
D|----4---4----|----4---4----|-----------|------------|
A|-5-----------|-5-----------|----2-2-5--|-------2----|
E|-------------|-------------|-3---------|-3--5-------|

Y la luz del sol... no brilla igual...


G|-----------|-----------|-----------|----------|
D|----2-2-5--|----2-2-5--|-----------|----------|
A|-3---------|-3---------|----2-2-5--|----2--3--|
E|-----------|-----------|-3---------|-3--------|

Sin tu amor... los celos me consumen...


G|------2---2-|-----------|-----------|----------|
D|----4---4---|----4-4----|-----------|----------|
A|-5----------|-5------5--|----2-2-5--|-------2--|
E|------------|-----------|-3---------|-3--5-----|

Y el temor... no me deja dormir...


G|-----------|-------------|-----------|------------|
D|----2-2-5--|----2---2----|-----------|------------|
A|-3---------|-3----3---3--|----2-2-5--|----2-2-3---|
E|-----------|-------------|-3---------|-3----------|

Dime tú... qué hago vida mía...


G|------2---2-|------2---2-|------------|------------|
D|----4---4---|----4---4---|------------|------------|
A|-5----------|-5----------|----2-5-2-5-|---------2--|
E|------------|------------|-3----------|-3--3-5-----|

Sin tu amor... yo voy a enloquecer...


Se repite el intro:


G|-----------|-----------|-----------|-----------|
D|----2-2-5--|----2-2-5--|-----------|-----------|
A|-3---------|-3---------|----2-2-5--|----2-2-3--|
E|-----------|-----------|-3---------|-3---------|


G|--------2--|-----------|---------|------------|
D|----4-4----|----4-4----|---------|------------|
A|-5---------|-5------5--|----2-5--|--------2---|
E|-----------|-----------|-3-------|-3-3-5------|


G|-----------|-----------|-----------|-------------|
D|----2-2-5--|----2-2----|-----------|-------------|
A|-3---------|-3------3--|----2-2-5--|----2-2-3-5--|
E|-----------|-----------|-3---------|-3-----------|

Sin tu amor... los celos me consumen...


G|------2---2-|-----------|------------|-----------|
D|----4---4---|----4-4----|------------|-----------|
A|-5----------|-5------5--|----2-5-2-5-|--------2--|
E|------------|-----------|-3----------|-3-3-5-----|

Y el temor... no me deja dormir...


G|-----------|-----------|-------------|------------|
D|----2-2-5--|----2-2-5--|-------------|------------|
A|-3---------|-3---------|----2-5-2-5--|----2-2-3---|
E|-----------|-----------|-3-----------|-3----------|

Dime tú... qué hago vida mía...


G|------2---2-|------2---2-|------------|------------|
D|----4---4---|----4---4---|------------|------------|
A|-5----------|-5----------|----2-5-2-5-|---------2--|
E|------------|------------|-3----------|-3--3-5-----|

Sin tu amor... yo voy a enloquecer...


El intro otra vez:


G|-----------|-----------|-----------|-----------|
D|----2-2-5--|----2-2-5--|-----------|-----------|
A|-3---------|-3---------|----2-2-5--|----2-2-3--|
E|-----------|-----------|-3---------|-3---------|


G|--------2--|-----------|----------|------------|--------------|
D|----4-4----|----4-4----|----------|------------|--------------|
A|-5---------|-5------5--|------5-5-|------5-5---|-------5-5----|
E|-----------|-----------|-3--3-----|-3--3-------|-3--3-------3-|

                                                         FIN


?Nunca se crean dueños de la persona a quien aman... porque eso
es el causante de los celos... y les será más difícil olvidarse
de esa persona?
Suggest correction
Give kudos to tab author, rate the tab!
1 2 3 4 5
comments
print report bad tab
guest
You may want to rate the tab now too:
select rating
Wanna post a correction for this tab? Suggest correction