Oops, an error
Loading. Please wait.

El Desierto Bass

by Maná
50 views 1 this week
no commentswrite comment
1 2 3 4 5
3 more votes to show rating
add to favorites
×
Save as Personal and add changes to this tab that will be seen only by you. Learn more ›
×
You can save this tab as Personal to edit and correct it or add notes. All changes will be seen only by you. Learn more »
save as personal
new!
launch autoscroll
font size
0
reset
guitar tuner
Autoscroll
slow
fast
+/-
esc
set tempo
stop
Intro
G|---------------------|
D|---------------------|
A|-5-5-5---5---2-2-----| x2
E|-------5---5-----3-3-|

Verso
G|---------------------|
D|---------------------|
A|-5-5-5---5---2-2-----| x3
E|-------5---5-----3-3-|

G|-----------------------|
D|-----------------5-4/2-|
A|-5-5-5---5---2-2-------|
E|-------5---5-----------|

G|---------------------|
D|---------------------|
A|-5-5-5---5---2-2-----| x4
E|-------5---5-----3-3-|

Pre-Coro
G|-------------------------------------|-----------------------------------|
D|-------------------------------------|-----------------------------------|
A|-----------------2-2-2/4-----1/3-2/4-|-----------------2-2-2/4-2-4-2-4/5-|
E|-5-5-5-5-3-3-3-3---------3-3---------|-5-5-5-5-3-3-3-3-------------------|

Coro
G|---------------------------------|-----------------------------------|
D|---------------------------------|-----------------------------------|
A|-5--5-5---5--5-5/2--2-2----------|-5--5-5----------------------------|
E|--------------------------3--3-3-|--------5-3--3-3---5--5-5---3--3-3-|

G|-------------------------------------|-----------------------------------|
D|-------------------------------------|-----------------------------------|
A|-----------------------------------4-|-5--5-5----------------------------|
E|-7--7-7---5--5-5---3--3-3---5--5-5---|--------5-3--3-3---5--5-5---3--3-3-|

[Intro]

Puente
G|---------|-----------------|
D|-9/7-6-7-|-----------------|
A|---------|-5--5-5----------| x4
E|---------|----------7--3-3-|

G|-----------------------------------|-----|-------------------------------------|
D|-----------------------------------|-----|-------------------------------------|
A|--------------------------5--------|-5-5-|--------------------------5--------7-|
E|-5--5-5---3--3-3---7--7-7---5--5-5-|-----|-5--5-5---3--3-3---7--7-7---5--5-9---|

[Coro]

Final
G|--------------------------|
D|--------------------------|
A|-5/14-----17-12-----5-2---|
E|------------------------3-|

G|-----------------------------------|-----|---------------------------------------|
D|-----------------------------------|-----|---------------------------------------|
A|--------------------------5--------|-5-5-|--------------------------5----------5-|
E|-5--5-5---3--3-3---7--7-7---5--5-5-|-----|-5--5-5---3--3-3---7--7-7------5~------|

G|-----------------------------------------------------------|
D|-----------------------------------------------------------|
A|-5~----5--5-5------------5--5-5----------------------------|
E|----------------3--3-3----------5-3--3-3---5--5-5---3--3-3-|

G|-----------------------------------------------------------------------|
D|-----------------------------------------------------------------------|
A|-----------------------------------4-5--5-5----------------------------|
E|-7--7-7---5--5-5---3--3-3---5--5-5----------5-3--3-3---5--5-5---3--3-3-|

G|--------------------------------------------|
D|----5-7-------------------------------------|
A|-5-----(7)-----4-5--------8-9-10------6-7---| Se repite hasta que se acabe.
E|------------3------5---7-----------5------7-|
Suggest correction
Give kudos to tab author, rate the tab!
1 2 3 4 5
comments
print report bad tab
guest
Wanna post a correction for this tab? Suggest correction