Oops, an error
Loading. Please wait.

El Desierto Tab

version 1
version 1

Whole song

by Maná
54 views 1 this week
no commentswrite comment
1 2 3 4 5
1 last vote to show rating
add to favorites
launch autoscroll
font size
0
reset
how to read this tab
guitar tuner
Autoscroll
slow
fast
+/-
esc
set tempo
stop
Pues como ya es costumbre, estoy tratando de sacar todos los
tabs que no esten en la pagina y este es otro de ellos.

Intro:

1. -----------------------------------------------|
2. -----------------------------------------------|
3. -----------------------------------------------|
4. -------------------4----------------------4----|X2
5. 9-10-9-5--5---5-5---5--9-10-9-5--5---5-5---5--|
6. -------------5----------------------5----------|

       D                     Bm
Ya me voy, muy lejos del pueblo,
     A                  G                   D
empacando maletas, guardando recuerdos de amor.

1. --------------|
2. -7-7\5-5-3/5--|
3. --------------|
4. --------------|
5. --------------|
6. --------------|

       D            Bm
Ya me voy, rumbo al norte,
         A                G              D
dejo novias, mis calles, mi gente, mi mexico.

1. ------------------|
2. -7-7\5-5-5\3-3-5--|
3. ------------------|
4. ------------------|
5. ------------------|
6. ------------------|

Puente:

A     D    Bm                   A    
Ay ay ay ay, algun dia yo volvere, (riff 1)
      D     G                A
ay ay ay ay, te prometo mi amor.


Coro:

D      Bm               G  A
No llorare, mientras camino, (riff 2)
       D           Bm
el desierto y la luna,
              G  A 
se vienen conmigo, (riff 3)
 D        Bm               G  A
no, yo no se, donde va el tren, (riff 4)
       D        Bm
te lo juro mi amor,
           G  A
por ti volvere, (riff 5)


1. -----------------------------------------------|
2. -----------------------------------------------|
3. -----------------------------------------------|
4. -------------------4----------------------4----|
5. 9-10-9-5--5---5-5---5--9-10-9-5--5---5-5---5--|
6. -------------5----------------------5----------|

            D                 Bm           
No se si comere, ni donde dormire,
      A                     G           D
pero con tu recuedo en el frio me cubrire.

1. -----------------|
2. -/9-9-7-5-7-5-3--|
3. -----------------|
4. -----------------|
5. -----------------|
6. -----------------|

         D                 Bm
Creeme amor, se necesita valor,
       A                        G
y no creo que el desierto y la luna,
            D
me den tu amor.

1. ------------------------|
2. 7b-7-7b-7-7b-7-5-3-5b--|
3. ------------------------|
4. ------------------------|
5. ------------------------|
6. ------------------------|

A     D    Bm                   A    
Ay ay ay ay, algun dia yo volvere, (riff 1)
      D     G                A
ay ay ay ay, te prometo mi amor.

D      Bm               G  A
No llorare, mientras camino, (riff 2)
       D           Bm
el desierto y la luna,
              G  A 
se vienen conmigo, (riff 3)
 D       Bm               G  A
no no no se, donde va el tren, (riff 4)
       D        Bm
te lo juro mi amor,
           G  A
por ti volvere, (riff 5)


Solo:

1. --------------------------------------------------------|
2. --------------------------------------------------------|
3. --------------------------------------------------------|
4. ----------------------------4----------------------4----|
5. 7-97-10-9-10-9-5--5---5-5---5--9-10-9-5--5---5-5---5--|
6. ----------------------5----------------------5----------|

1. ------------------------------------|
2. ------------------------------------|
3. ------------------------------------|
4. -------------------4----------------|
5. -9-10-9-5--5---5-5---5--9-10-9-5----|
6. -------------5----------------------|

1. -----x-0-0-2-0-x-------2-4-5-x-0-0-2-0-x-0-x-0-0------|
2. 3p1-x-2-2-3-2-x-1/3-1-3-----x-2-2-3-2-x-2-x-0-2-3-5--|
3. -----x-2-2-2-2-x-------4-----x-2-2-2-2-x-2-x-0-2------|
4. -----x-2-2-0-2-x-------4-----x-2-2-0-2-x-2-x-0-2------|
5. -----x-0-0---0-x-------2-----x-0-0---0-x-0-x-0-0------|
6. ------------------------------------------------------|


        Bm              G  A
No llorare, mientras camino, (riff 2)
       D           Bm
el desierto y la luna,
              G  A 
se vienen conmigo, (riff 3)
 D        Bm                G  A
no, yo no se, donde va el tren, (riff 4)
       D        Bm
te lo juro mi amor,
           G  A
por ti volvere, (riff 5)


   Por ti volvere, por ti volvere,
1. --------------------------------|
2. -3-7-5-7-3-7-5-7-3-7-5-3-7-5-7--|
3. --------------------------------|
4. --------------------------------|
5. --------------------------------|
6. --------------------------------|
 
   por ti volvere, por ti volvere.....
1. --------------------------------|
2. -3-7-5-7-3-7-5-7-3-7-5-3-7-5-7--|
3. --------------------------------|
4. --------------------------------|
5. --------------------------------|
6. --------------------------------|


-------------------------------------------------------------------------------

riff 1:              riff 2:               riff 3:        riff 4:
1. ----------------|-----------------|-3-5----------|-------------|
2. -7-7-8-7-5-7-7--|-----------------|-----7-5-7p5--|-7b-7b-5-3~--|
3. ----------------|-----------------|--------------|-------------|
4. ----------------|-------5-7-5-----|--------------|-------------|
5. ----------------|-3-3/5-------7b--|--------------|-------------|
6. ----------------|-----------------|--------------|-------------|

riff 5:
1. -3-5-2b--|
2. ---------|
3. ---------|
4. ---------|
5. ---------|
6. ---------|


Dudas o comentarios, peticiones, un virus o mentada, a mi
mail. Suerte!!!!
Suggest correction
Give kudos to tab author, rate the tab!
1 2 3 4 5
comments
print report bad tab
guest
You may want to rate the tab now too:
select rating
Wanna post a correction for this tab? Suggest correction