Oops, an error
Loading. Please wait.

El Desierto Tab

version 2
version 2

Whole song

by Maná
41 views 3 this week
no commentswrite comment
1 2 3 4 5
3 more votes to show rating
add to favorites
launch autoscroll
font size
0
reset
how to read this tab
guitar tuner
×
Best way to learn
"El Desierto"
Autoscroll
slow
fast
+/-
esc
set tempo
stop
HOLA!! HOY EH VENIDO CON UNA CANCIÓN QUE NUNCA DEJO DE
GUSTARME ES UNA DE MIS FAVORITA Y LO QUE LES VOY A DEJAR ES
ROLA QUE ESTA CORREGIDA Y COMPLETA OK AHI LES VA:

INTRO: (GUITARRA DE FHER RASGUEA EN ESTOS ACORDES EL INTRO)
  (D Bm G)
(Y LA ERLECTRICA HACE ESTOS PUNTEOS EN EL INTRO)
Intro
1.---------------------|
2.---------------------|
3.---------------------| X2
4.---------------------|
5.-5-5-5---5---2-2-----|
6.-------5---5-----3-3-|

 VERSOS:
        D  Bm G                D       Bm G
Ya me voy      muy lejos del pueblo,
     D                  Bm   G
empacando maletas, guardando recuerdos
 D          Bm G
de amor.
1.-2-2-2-0-0-0--3-3v-|
2.-------------------|
3.-------------------|
        D  Bm G         D      Bm G
Ya me voy      rumbo al norte
      D                     Bm    G        D   Bm  G
dejo novias, mis calles, mi gente, mi méxico
1.-2-2-2-3-3-3-0-0-|
2.-2-2-2-3-3-3-2-2-|
3.-----------------|

PRECORO:
A     G        Bm
Ay, Ay, Ay, Ay
               A
algun dia yo volveré
1.-0-0-0-2-2-0-|
2.-2-2-2-3-3-2-|
3.-------------|
A       G         Bm
Ay, Ay, Ay, Ay
              A
te prometo mi amor.

(AHORA EL CORO)
CORO:
D                     Bm     G
No lloraré mientras camino
      D             G           A   G
el desierto la luna se viene conmigo
Bm        A             G     A
no, yo no se donde va el tren
      D           G            A       G   D
te lo juro mi amor, por ti volveré
(FIN DEL CORO)
1.---------------------|
2.---------------------|
3.---------------------| X2
4.---------------------|
5.-5-5-5---5---2-2-----|
6.-------5---5-----3-3-|


No se si comeré, ni donde dormiré

pero con tu recuerdo del frío, me cubriré
        D   Bm G          D      Bm G
Creeme amor,     se necesita valor
       D                      Bm    G
y no creo que el desierto y la luna
           D    Bm G
me den tu amor.
1.-2-2-2-3-3-3-0-0-|
2.-2-2-2-3-3-3-2-2-|
3.-----------------|

PRECORO:
A     G        Bm
Ay, Ay, Ay, Ay
               A
algun dia yo volveré
1.-0-0-0-2-2-0-|
2.-2-2-2-3-3-2-|
3.-------------|
A       G         Bm
Ay, Ay, Ay, Ay
              A
te prometo mi amor.

CORO:
D                     Bm     G
No lloraré mientras camino
      D             G           A   G
el desierto la luna se viene conmigo
Bm        A             G     A
no, yo no se donde va el tren
      D           G            A       G   D
te lo juro mi amor, por ti volveré

1.---------------------|
2.---------------------|
3.---------------------| X2
4.---------------------|
5.-5-5-5---5---2-2-----|
6.-------5---5-----3-3-|

(AHORA BIENE ESTE SOLO)
1.-0-0-3--2--2-2-2-2-0--0-0-----0-----|
2.-2-2-3--3--3-3-3-3-2--2---2---2-----|
3.----------------------2----2--2-----|
4.----------------------2-----2-2-----|
5.------------------------------------|
6.------------------------------------|

1.-0-0-3--2--2-2-2-2-0--2-------------|
2.-2-2-3--3--3-3-3-3-2--3-------------|
3.----------------------2-------------|
4.----------------------0-------------|
5.------------------------------------|
6.------------------------------------|
(FIN DEL SOLO)
                     Bm     G
No lloraré mientras camino
      D             G           A   G
el desierto la luna se viene conmigo
Bm        A             G     A
no, yo no se donde va el tren
      D           G            A       G   D
te lo juro mi amor, por ti volveré

      D        G   Bm  A
Por ti volveré
      D        G   Bm  A
Por ti volveré
      D        G   Bm  A
Por ti volveré
      D        G   Bm  A
Por ti volveré
(LA GUITARRA VA HACIENDO ESTE ARPEGIO)
1.--------------------------------|
2.-3-7-5-7-3-7-5-7-3-7-5-3-7-5-7--|
3.--------------------------------|
4.--------------------------------|
5.--------------------------------|
6.--------------------------------|
HASTA EL FINAL DE LA CANCIÓN
============================FIN===============================
BUENO AMIGOS AHI ESTA LISTO OK "practiquen" OK CHAÚ.

LEANDRO_TRANSCRIPCIONES@  17/01/06  10:29hs
 CHAÚ!!!!
Suggest correction
Give kudos to tab author, rate the tab!
1 2 3 4 5
comments
print report bad tab
guest
You may want to rate the tab now too:
select rating
Wanna post a correction for this tab? Suggest correction