Oops, an error
Loading. Please wait.

El Dragón Tab

version 1
version 1

Whole song

Interactive

by Maná
84 views 1 this week
no commentswrite comment
1 2 3 4 5
3 more votes to show rating
add to favorites
×
Save as Personal and add changes to this tab that will be seen only by you. Learn more ›
×
You can save this tab as Personal to edit and correct it or add notes. All changes will be seen only by you. Learn more »
save as personal
new!
launch autoscroll
font size
0
reset
how to read this tab
guitar tuner
Autoscroll
slow
fast
+/-
esc
set tempo
stop
intro
e-7--7--7--5--5--5--5--5--5--3--3--3---3--3--3--2--2--2--2--2--
B--5--5--5--5--5--5--4--4--4--0--0--0---0--0--0--5--5--5--4--4--
G---4--4-----4--4-----4--4-----4--4------5--5-----2--2-----2--2-
D---------------------------------------------------------------
A---------------------------------------------------------------
E---------------------------------------------------------------

e-2--0--0--0---------------------------
B--4--0--0--0--------------------------
G------0--0----------------------------
D--------------------------------------
A--------------------------------------
E--------------------------------------


 Em           Am        B7           Em
te vaaaaas mi vida perdiiiiiendo el suelo
e-7--7--7--5--5--5--5--5--5--3--3--3--
B--5--5--5--5--5--5--4--4--4--0--0--0-
G---4--4-----4--4-----4--4-----4--4---
D-------------------------------------
A-------------------------------------
E-------------------------------------
 C            Am         B7              Em
te vas sin despediiida te vas hiriendo el cielo
e-3--3--3--2--2--2--2--2--2--0--0--0---
B--0--0--0--5--5--5--4--4--4--0--0--0--
G---5--5-----2--2-----2--2-----0--0----
D--------------------------------------
A--------------------------------------
E--------------------------------------
  Em           Am        B7           Em
te diiiii mi vida, te amaaaaaaaba tanto
 e-7--7--7--5--5--5--5--5--5--3--3--3--
B--5--5--5--5--5--5--4--4--4--0--0--0-
G---4--4-----4--4-----4--4-----4--4---
D-------------------------------------
A-------------------------------------
E-------------------------------------
 C            Am         B7              Em
dragones en el viento que rompieron nuestro encanto
e-3--3--3--2--2--2--2--2--2--0--0--0---
B--0--0--0--5--5--5--4--4--4--0--0--0--
G---5--5-----2--2-----2--2-----0--0----
D--------------------------------------
A--------------------------------------
E--------------------------------------
 Em    Am        B7   Em
noooo podia y noooo leia
e-7--7--7--5--5--5--5--5--5--3--3--3--
B--5--5--5--5--5--5--4--4--4--0--0--0-
G---4--4-----4--4-----4--4-----4--4---
D-------------------------------------
A-------------------------------------
E-------------------------------------
 C            Am         B7              Em
las lineas tan heridas tatuadas en tu alma
e-3--3--3--2--2--2--2--2--2--0--0--0-----------
B--0--0--0--5--5--5--4--4--4--0--0--0----------
G---5--5-----2--2-----2--2-----0--0------------
D-------------------------------------2-0------
A----------------------------------------3-2-0-
E----------------------------------------------
Am           C            B7
te vaaaaaaas fugaaaz a la eternidad
e---0-----0-------0---x---x-x-x---------------
B--1-1---1-1-----0-0--x---x-x-x---------------
G-2---2-0---0---2---2-x---x-x-x---------------
D--------------1-----1x---x-x-x---------------
A-------------2-------x---x-x-x---------------
E---------------------x---x-x-x---------------

coro:
Em                      Am                B7
dragon parece un dragon,tus recuerdos quedaron salpicando fuego
e---------------------------------------
B---------------------------------------
G---------------------------------------
D-2-----2-------------------------------
A-2-----2--3-3-3-2-0-0-0-0-0-2----------
E0-0-3-3------------3-------------------
Em                       C                B7
dragon parece dragon va salpicando el fuego va hiriendo el cielo
e---------------------------------------
B---------------------------------------
G---------------------------------------
D-2-----2-------------------------------
A-2-----2--3-3-3-2-0-0-0-0-0-2----------
E0-0-3-3------------3-------------------
Em                      Am                B7
dragon parece un dragon,tus recuerdos quedaron salpicando fuego
e---------------------------------------
B---------------------------------------
G---------------------------------------
D-2-----2-------------------------------
A-2-----2--3-3-3-2-0-0-0-0-0-2----------
E0-0-3-3------------3-------------------
Em                       C                B7
dragon parece dragon hiriendo la eternidad
e---------------------------------------
B---------------------------------------
G---------------------------------------
D-2-----2-------------------------------
A-2-----2--3-3-3-2-0-0------------------
E0-0-3-3------------3-------------------

intro (punteo)
  Em           Am        B7           Em
veneno y penas fluyen por tus venas
e-7--7--7--5--5--5--5--5--5--3--3--3--
B--5--5--5--5--5--5--4--4--4--0--0--0-  guitarra 1
G---4--4-----4--4-----4--4-----4--4---
D-------------------------------------
A-------------------------------------
E-------------------------------------

e--------------------------------------    guitarra 2
B--------------------------------------
G--------------------------------------   t:tap (precionar
D-2---2-2---2---2-2---2-2---2---2---2--   precionar solo el
A-2---2-2---2---2-2---2-2---2---2---2--   sgte traste tapandolo)
E-0t2-0-0t2-0t2-0-0t2-0-0t2-0t2-0t2-0--
 C            Am         B7              Em
fictisio paraíso y yo sin darme cuenta
e-3--3--3--2--2--2--2--2--2--0--0--0---
B--0--0--0--5--5--5--4--4--4--0--0--0--    guitarra 1
G---5--5-----2--2-----2--2-----0--0----
D--------------------------------------
A--------------------------------------
E--------------------------------------

e--------------------------------------
e--------------------------------------    guitarra 2
B--------------------------------------
G--------------------------------------   t:tap (precionar
D-2---2-2---2---2-2---2-2---2---2---2--   precionar solo el
A-2---2-2---2---2-2---2-2---2---2---2--   sgte traste tapandolo)
E-0t2-0-0t2-0t2-0-0t2-0-0t2-0t2-0t2-0--
  Em           Am        B7           Em
dolor por dentro,dragones en el viento
e-7--7--7--5--5--5--5--5--5--3--3--3--
B--5--5--5--5--5--5--4--4--4--0--0--0-    guitarra 1
G---4--4-----4--4-----4--4-----4--4---
D-------------------------------------
A-------------------------------------
E-------------------------------------

e--------------------------------------    guitarra 2
B--------------------------------------
G--------------------------------------   t:tap (precionar
D-2---2-2---2---2-2---2-2---2---2---2--   precionar solo el
A-2---2-2---2---2-2---2-2---2---2---2--   sgte traste tapandolo)
E-0t2-0-0t2-0t2-0-0t2-0-0t2-0t2-0t2-0--

e--------------------------------------
B---12------12-----------------12------
G-9---9----9--9---------------9--9-----
D--------------------------------------  guitarra 3
A--------------------------------------
E--------------------------------------
 C            Am         B7              Em
clavaron sus colmillos la adiccion y el sufrimiento
e-3--3--3--2--2--2--2--2--2--0--0--0-----------
B--0--0--0--5--5--5--4--4--4--0--0--0---------- guitarra 1
G---5--5-----2--2-----2--2-----0--0------------
D-------------------------------------2-0------
A----------------------------------------3-2-0-
E----------------------------------------------

e--------------------------------------    guitarra 2
B--------------------------------------
G--------------------------------------   t:tap (precionar
D-2---2-2---2---2-2---2-2---2---2---2--   precionar solo el
A-2---2-2---2---2-2---2-2---2---2---2--   sgte traste tapandolo)
E-0t2-0-0t2-0t2-0-0t2-0-0t2-0t2-0t2-0--

e----------------------------------
B--------------------------12------  guitarra 3
G-------------------------9--9-----  con distorsion
D----------------------------------
A----------------------------------
E----------------------------------
Am           C            B7
te vaaaaaaas fugaaaz a la eternidad
e---0-----0-------0---x/1--------------------
B--1-1---1-1-----0-0--x/1--------------------
G-2---2-0---0---2---2-x/1--------------------
D--------------1-----1x/1--------------------
A-------------2-------x/1--------------------
E---------------------x/1--------------------
 coro:
Em                      Am                B7
dragon parece un dragon,tus recuerdos quedaron salpicando fuego
e---------------------------------------
B---------------------------------------  guitarra 1
G---------------------------------------
D-2-----2-------------------------------
A-2-----2--3-3-3-2-0-0-0-0-0-2----------
E0-0-3-3------------3-------------------

e-----------------------------------------
B-5-5-5-5-5-5-5-5--5-5-5-5--4-4-----5-5-7- guitarra 2
G--4-4-4-4-4-4-4-4--5-5-5-5--2-2-2/5-5----
D-----------------------------------------
A-----------------------------------------
E-----------------------------------------
Em                       C                B7
dragon parece dragon va salpicando el fuego va hiriendo el cielo
e----------------------------------------
B----------------------------------------
G----------------------------------------  guitarra 1
D--2-----2-------------------------------
A--2-----2--3-3-3-2-0-0-0-0-0-2----------
E-0-0-3-3------------3-------------------

e-----------------------------------------
B-5-5-5-5-5-5-5-5--5-5-5-5--4-4-4-4-------
G--4-4-4-4-4-4-4-4--5-5-5-5--2-2-2-2------  guitarra 2
D-----------------------------------------
A-----------------------------------------
E-----------------------------------------
Em                       Am                B7
dragon parece un dragon,tus recuerdos quedaron salpicando fuego
e---------------------------------------
B---------------------------------------    guitarra 1
G---------------------------------------
D-2-----2-------------------------------
A-2-----2--3-3-3-2-0-0-0-0-0-2----------
E0-0-3-3------------3-------------------

e-3-3-3-3-3-3-3-3--5-5-5-5--3-3---5-5-7-
B--5-5-5-5-5-5-5-5--5-5-5-5--4-4/7-7----
G---------------------------------------
D---------------------------------------  guitarra 2
A---------------------------------------
E---------------------------------------
Em                       C                B7
dragon parece dragon hiriendo la eternidad
e---------------------------------------
B---------------------------------------
G---------------------------------------
D-2-----2-------------------------------
A-2-----2--3-3-3-2-0-0------------------  guitarra 1
E0-0-3-3------------3-------------------

e-3-3-3-3-3-3-3-3--5-5-5-5--3-3-3-3-----
B--5-5-5-5-5-5-5-5--5-5-5-5--4-4-4-4----   guitarra 2
G---------------------------------------
D---------------------------------------
A---------------------------------------
E---------------------------------------

solo :
e--------------------------------------    guitarra 2
B--------------------------------------
G--------------------------------------   t:tap (precionar
D-2---2-2---2---2-2---2-2---2---2---2--  sgte traste tapandolo)
A-2---2-2---2---2-2---2-2---2---2---2--
E-0t2-0-0t2-0t2-0-0t2-0-0t2-0t2-0t2-0--

e--------------------------------------
B--------------------------------------
G--------------------------------------
D-2---2-2---2---2-2---2-2---2---2---2--
A-2---2-2---2---2-2---2-2---2---2---2--
E-0t2-0-0t2-0t2-0-0t2-0-0t2-0t2-0t2-0--

Em          Am                  B7
e-----------------------------------------------------------
B-----------------------------------------------------------
G-9-9-9-9-9-9-9-9-9-9-9-9-9-9-9-9-9-9-9-9-9-9-9-9-----------
D-----------------------------------------------------------
A-----------------------------------------------------------
E-----------------------------------------------------------
Em          C               Am                  B7
e-----------------------------------------------------------
B-----------------------------------------------------------
G-9-9-9-9-9-11-11-11-11-11-11-11-11-11-11-11-11-11-11-------
D-----------------------------------------------------------
A-----------------------------------------------------------
E-----------------------------------------------------------

                      te vaaaas fugaaz a la eternidad
         Em               Am                 C
e------------------------------------------15-14---
B----------------------------------12-13-15-----13-
G-12-12-12-12-12-12-12-14-14-14-14-----------------
D--------------------------------------------------
A--------------------------------------------------
E--------------------------------------------------
            B7
e-----------------0---x---x-x-x---------------
B----------------0-0--x---x-x-x---------------
G---------------2---2-x---x-x-x---------------
D--------------1-----1x---x-x-x---------------
A-------------2-------x---x-x-x---------------
E---------------------x---x-x-x---------------

coro:
Em                            Am
dragon parece un dragon,la adiccion clavan

B7
sus colmillos en el fuego

e---------------------------------------
B---------------------------------------
G---------------------------------------  entra otra
D-2-----2-------------------------------  guitarra
A-2-----2--3-3-3-2-0-0-0-0-0-2----------
E0-0-3-3------------3-------------------   guitarra 1

e-----------------------------------------
B-5-5-5-5-5-5-5-5--5-5-5-5--4-4-----5-5-7-
G--4-4-4-4-4-4-4-4--5-5-5-5--2-2-2/5-5----  guitarra 2
D-----------------------------------------
A-----------------------------------------
E-----------------------------------------
Em                          C                B7
dragon parece dragon va salpicando el fuego va hiriendo el cielo
e----------------------------------------
B----------------------------------------  guitarra 1
G----------------------------------------
D--2-----2-------------------------------
A--2-----2--3-3-3-2-0-0-0-0-0-2----------
E-0-0-3-3------------3-------------------

e-----------------------------------------
B-5-5-5-5-5-5-5-5--5-5-5-5--4-4-4-4-------
G--4-4-4-4-4-4-4-4--5-5-5-5--2-2-2-2------
D-----------------------------------------  guitarra 2
A-----------------------------------------
E-----------------------------------------
Em                            Am                B7
dragon parece un dragon,tus recuerdos quedaron salpicando fuego
e---------------------------------------
B---------------------------------------
G---------------------------------------
D-2-----2-------------------------------   guitarra 1
A-2-----2--3-3-3-2-0-0-0-0-0-2----------
E0-0-3-3------------3-------------------

e-3-3-3-3-3-3-3-3--5-5-5-5--3-3---5-5-7-
B--5-5-5-5-5-5-5-5--5-5-5-5--4-4/7-7----
G--------------------------------------- guitarra 2
D---------------------------------------
A---------------------------------------
E---------------------------------------
Em                      C                B7
dragon parece dragon hiriendo la eternidad
e---------------------------------------
B---------------------------------------
G---------------------------------------
D-2-----2-------------------------------   guitarra 1
A-2-----2--3-3-3-2-0-0------------------
E0-0-3-3------------3-------------------

e-3-3-3-3-3-3-3-3--5-5-5-5--3-3-3-3-----
B--5-5-5-5-5-5-5-5--5-5-5-5--4-4-4-4----
G---------------------------------------
D--------------------------------------- guitara 2
A---------------------------------------
E---------------------------------------

e-7--7--7--5--5--5--5--5--5--3--3--3--
B--5--5--5--5--5--5--4--4--4--0--0--0-  guitarra 1
G---4--4-----4--4-----4--4-----4--4---
D-------------------------------------
A-------------------------------------
E-------------------------------------

e--------------------------------------    guitarra 2
B--------------------------------------
G--------------------------------------   t:tap (precionar
D-2---2-2---2---2-2---2-2---2---2---2--   precionar solo el
A-2---2-2---2---2-2---2-2---2---2---2--   sgte traste tapandolo)
E-0t2-0-0t2-0t2-0-0t2-0-0t2-0t2-0t2-0--

e-3--3--3--2--2--2--2--2--2--0--0--0---
B--0--0--0--5--5--5--4--4--4--0--0--0--    guitarra 1
G---5--5-----2--2-----2--2-----0--0----
D--------------------------------------
A--------------------------------------
E--------------------------------------

e--------------------------------------    guitarra 2
B--------------------------------------
G--------------------------------------   t:tap (precionar
D-2---2-2---2---2-2---2-2---2---2---2--   sgte traste tapandolo)
A-2---2-2---2---2-2---2-2---2---2---2--
E-0t2-0-0t2-0t2-0-0t2-0-0t2-0t2-0t2-0--

ooooooooooooh oooooooooooooooooooh
e-7--7--7--5--5--5--5--5--5--3--3--3--
B--5--5--5--5--5--5--4--4--4--0--0--0-  guitarra 1
G---4--4-----4--4-----4--4-----4--4---
D-------------------------------------
A-------------------------------------
E-------------------------------------

e--------------------------------------    guitarra 2
B--------------------------------------
G--------------------------------------   t:tap (precionar
D-2---2-2---2---2-2---2-2---2---2---2--   precionar solo el
A-2---2-2---2---2-2---2-2---2---2---2--   sgte traste tapandolo)
E-0t2-0-0t2-0t2-0-0t2-0-0t2-0t2-0t2-0--

e-3--3--3--2--2--2--2--2--2--0--0--0---
B--0--0--0--5--5--5--4--4--4--0--0--0--    guitarra 1
G---5--5-----2--2-----2--2-----0--0----
D--------------------------------------
A--------------------------------------
E--------------------------------------

e--------------------------------------
B--------------------------------------   guitara 2
G--------------------------------------   t:tap (precionar el traste)
D-2---2-2---2---2-2---2-2---2---2---2--
A-2---2-2---2---2-2---2-2---2---2---2--
E-0t2-0-0t2-0t2-0-0t2-0-0t2-0t2-0t2-0--

ooooooooooooh oooooooooooooooooooh
e-7--7--7--5--5--5--5--5--5--3--3--3--
B--5--5--5--5--5--5--4--4--4--0--0--0-  guitarra 1
G---4--4-----4--4-----4--4-----4--4---
D-------------------------------------
A-------------------------------------
E-------------------------------------

e--------------------------------------    guitarra 2
B--------------------------------------
G--------------------------------------   t:tap (precionar
D-2---2-2---2---2-2---2-2---2---2---2--   precionar solo el
A-2---2-2---2---2-2---2-2---2---2---2--   sgte traste tapandolo)
E-0t2-0-0t2-0t2-0-0t2-0-0t2-0t2-0t2-0--

oooooooooooooh ooooooooooooooh
e-3--3--3--2--2--2--2--2--2--0--0--0---
B--0--0--0--5--5--5--4--4--4--0--0--0--    guitarra 1
G---5--5-----2--2-----2--2-----0--0----
D--------------------------------------
A--------------------------------------
E--------------------------------------

e--------------------------------------    guitarra 2
B--------------------------------------
G--------------------------------------   t:tap (precionar
D-2---2-2---2---2-2---2-2---2---2---2--   precionar solo el
A-2---2-2---2---2-2---2-2---2---2---2--   sgte traste tapandolo)
E-0t2-0-0t2-0t2-0-0t2-0-0t2-0t2-0t2-0--
Suggest correction
Give kudos to tab author, rate the tab!
1 2 3 4 5
comments
print report bad tab
guest
Wanna post a correction for this tab? Suggest correction