Oops, an error
Loading. Please wait.

El Reloj Cucú Bass

version 1
version 1

Whole song

Interactive

by Maná
82 views 1 this week
no commentswrite comment
1 2 3 4 5
3 more votes to show rating
add to favorites
launch autoscroll
font size
0
reset
guitar tuner
×
Best way to learn
"El Reloj Cucú"
Autoscroll
slow
fast
+/-
esc
set tempo
stop
Dedico esta canción a mi familia y a todos aquellos que se encuentran lejos de las suyas...

Ahi les va...


El primer verso va sin bajo

El relojito cucú sonaba...
papá besó mi frente...
me dijo buenas noches hijito...
y me apagó la luz...
oye cucú papá se fue...
prende la luz... que tengo miedo...
oye cucú papá se fue...
prende la luz... y apaga el tiempo


El bajo entra aquí

G|---------|
D|---------|
A|---------|
E|-0--|-0--|


G|-------------------|------------------|
D|----6-6------6-9-9-|---6-6------6-9-9-|
A|-7------7-7--------|-7-----7-7--------|
E|-------------------|------------------|

Esta canción de amor...

G|-----------------|-------------------|
D|----6-6----------|-------------------|
A|-7------7-7-6-6--|----4-4------4-7-7-|
E|-----------------|-5------5-5--------|

Va para mi papa...

G|-------------------|-------------------|
D|-------------------|-------------------|
A|----4-4------4-4-7-|----9-9------9-9-6-|
E|-5------5-5--------|-7------7-7--------|

Se escapó al viento...

G|-------------------|----------------------|----------------|
D|-------------------|----------------------|-------6-6------|
A|----9-9------9-9---|---11-11------11-11---|---6-9-----9----|
E|-7------7-7------7-|-9-------9-9--------9-|-7--------------|

                    Nos dejó solitos...


G|-------------------|------------------|
D|----6-6------6-9-9-|---6-6------6-9-9-|
A|-7------7-7--------|-7-----7-7--------|
E|-------------------|------------------|

Esta canción de amor...

G|-----------------|-------------------|
D|----6-6----------|-------------------|
A|-7------7-7-6-6--|----4-4------4-7-7-|
E|-----------------|-5------5-5--------|

Va para mi mama...

G|-------------------|-------------------|
D|-------------------|-------------------|
A|----4-4------4-4-7-|----6-6------9-9-6-|
E|-5------5-5--------|-7------7-7--------|

                   Que aguantó todito...

G|-------------------|----------------------|-----------------|
D|-------------------|----------------------|-----------------|
A|----9-9------9-9---|---11-11------11-11---|---6----7/9------|
E|-7------7-7------7-|-9-------9-9--------9-|-7---7------7----|

                    Le dolió hasta el hueso...


G|-------------------|------------------|
D|----6-6------6-9-9-|---6-6------6-9-9-|
A|-7------7-7--------|-7-----7-7--------|
E|-------------------|------------------|

Es por eso que mamá...

G|-----------------|-------------------|
D|----6-6----------|-------------------|
A|-7------7-7-6-6--|----4-4------4-7-7-|
E|-----------------|-5------5-5--------|

Lloraba en silencio...

G|-------------------|-------------------|
D|-------------------|-------------------|
A|----4-4------4-4-7-|----9-9------9-9-6-|
E|-5------5-5--------|-7------7-7--------|

Lloraba en las noches...

G|-------------------|-------------------|
D|-------------------|---6-6-------------|
A|----9-9------9-9---|-7-----7-7--6-6-7--|
E|-7------7-7------7-|-------------------|

 Y como aguantó...por las mañanas...


G|--------------|------------------|
D|---6----------|------------------|
A|-4--------9---|---4-4------4-4---|
E|-----7-7----7-|-5-----5-5------7-|

Oye cucú papá se fue...           prende...

G|-------------------|------------------|
D|-------------------|------------------|
A|----6-6------6-6---|---6-6------6-7-6-|
E|-7------7-7------7-|-4-----4-4--------|

la luz...           que tengo miedo...


G|--------------|------------------|
D|---6----------|------------------|
A|-4--------9---|---4-4------4-4---|
E|-----7-7----7-|-5-----5-5------7-|

Oye cucú papá se fue...           prende...

G|-------------------|------------|---------------|-----|
D|-------------------|------------|---------------|-----|
A|----9-9------9-9---|---6-6------|-------4-6-7---|-----|
E|-7------7-7------7-|-4-----4-4--|---------------|-0---|

la luz...           que tengo miedo...(guitarra)


G|-------------------|------------------|
D|----6-6------6-9-9-|---6-6------6-9-9-|
A|-7------7-7--------|-7-----7-7--------|
E|-------------------|------------------|

Esta canción de amor...

G|-----------------|-------------------|
D|----6-6----------|-------------------|
A|-7------7-7-6-6--|----4-4------4-7-7-|
E|-----------------|-5------5-5--------|

Va pa mis hermanos...

G|-------------------|-------------------|
D|-------------------|-------------------|
A|----4-4------4-4-7-|----9-9------9-9-6-|
E|-5------5-5--------|-7------7-7--------|

Que crecimos juntos...

G|-------------------|--------------------|
D|-------------------|--------------------|
A|----9-9------9-9---|---6-6-------6-6----|
E|-7------7-7------7-|-7------7-7-------7-|

                    Lo extrañamos años...

G|----------------------|---------------|
D|----------------------|--------6-6----|
A|---11-11------11-11---|---6-9-------9-|
E|-9-------9-9--------9-|-7-------------|


G|-------------------|------------------|
D|----6-6------6-9-9-|---6-6------6-6---|
A|-7------7-7--------|-7-----7-7------7-|
E|-------------------|------------------|

Este grito de amor... se lo doy al cielo...

G|------------------|--------------------|
D|------------------|--------------------|
A|---4-4------7-7-7-|----4-4------4-4----|
E|-5-----5-5--------|-5------5-5------5--|

                      Le pregunto tanto...

G|-----------------|------------------|------------------|
D|-----------------|------------------|---6-6------6-6-7-|
A|----9-9------9-6-|---6-6------6-6---|-7-----7-7--------|
E|-7------7-7------|-7-----7-7------7-|------------------|

Tanto tanto...     no contesta nada...


G|--------------|-------------------|
D|---6----------|-------------------|
A|-4--------9---|---4-4------4-4--7-|
E|-----7-7----7-|-5-----5-5---------|

Oye cucú papá se fue...           prende...

G|-------------------|------------------|
D|-------------------|------------------|
A|----6-6------6-6---|---6-6------6-7-6-|
E|-7------7-7------7-|-4-----4-4--------|

la luz...           que tengo miedo...


G|--------------|------------------|
D|---6----------|------------------|
A|-4--------9---|---4-4------4-4---|
E|-----7-7----7-|-5-----5-5------7-|

Oye cucú papá se fue...           prende...

G|-------------------|------------------|
D|-------------------|------------------|
A|----6-6------9-9-6-|---6-6------6-7-6-|
E|-7------7-7--------|-4-----4-4--------|

la luz...           que tengo miedo...


G|--------------|------------------|
D|---6----------|------------------|
A|-4--------9---|---4-4------4-4-7-|
E|-----7-7----7-|-5-----5-5--------|

Oye cucú papá se fue...           prende...

G|-------------------|------------------------|
D|-------------------|------------------------|
A|----6-6------6-6---|---6-6------6-7-7/9-7-6-|
E|-7------7-7------7-|-4-----4-4--------------|

la luz...           que tengo miedo...


G|--------------|----------------------|
D|---6----------|----------------------|
A|-4--------9---|---4-4------4-4-7-----|
E|-----7-7----7-|-5-----5-5---------7--|

Oye cucú papá se fue...  prende la luz...


G|----|----|----|-----|
D|----|----|----|-----|
A|----|----|----|-----|
E|-0--|-0--|-0--|-12--|

Final (durante la guitarra)...


FIN

Cualquier duda escríbanme a mi correo...
Suggest correction
Give kudos to tab author, rate the tab!
1 2 3 4 5
comments
print report bad tab
guest
You may want to rate the tab now too:
select rating
Wanna post a correction for this tab? Suggest correction