Oops, an error
Loading. Please wait.

El Reloj Cucú Chords

version 3
version 3

Whole song

Interactive

by Maná
202 views 1 this week
no commentswrite comment
1 2 3 4 5
3 more votes to show rating
add to favorites
×
Save as Personal and add changes to this tab that will be seen only by you. Learn more ›
×
You can save this tab as Personal to edit and correct it or add notes. All changes will be seen only by you. Learn more »
save as personal
new!
launch autoscroll
font size
0
reset
transpose
0
reset
simplify chords
display chords
guitar tuner
Autoscroll
slow
fast
+/-
esc
set tempo
stop
Capo
2nd fret
Strumming
There is no strumming pattern for this song yet. and get +5 IQ
Esta es una compliacion/correccion de todas las que hay,
es la más correcta y la mas fcail de tocar


CAPO 2
INTRO:
1|-2--5-2--2-2-3-0-|
2|-3--7-3--3-3-3-2-|
3|-                |x2
4|-                |
5|-                |
6|-                |

VERSO 1:
D
El relojito cucu sonaba...
1|-2-2-2--2-2-2--0/2-|
2|-3-3-3--3-3-3--2/3-|
3|                   |
4|                   | 
5|                   |  
6|                   |
                G
Papá besó mi frente...
1|-3-3-3--5-5-5--3/5-3-|
2|-5-5-5--7-7-7--5/7-5-|
3|
4|
5|
6|
                 A
Me dijo "Buenas noches hijito"...
1|-5---------7-----5-|
2|---7---7/9---9-----|
3|-----7---------9---|
4|
5|
6|
         A7      Bm
Y me apagó la luz...

PRECORO
   Bm7       
1|-2-----2-----------| Este es el PRECORO
2|-----3---2-----2---| diario se toca antes
3|---2---------2---4-| de entrar al arpegio del CORO
4|-----------4-------|
5|
6|

CORO: (nota1)

Bm                  G
Oye cucú papá se fue,
           A7               F#m   
Prende la luz, que tengo miedo.
1|-0-2-0--------|
2|--------3-2-3-|
3|--------------|
Bm                 G
Oye cucú papá se fue,
            A7               F#m
Prende la luz, y apaga el tiempo.


INTRO:

VERSO 2:
                  D
Esta canción de amor...
1|-5-5-5\3--3-3-3\2--2-2-|
2|-7-7-7\5--5-5-5\3--3-3-|
3|
4|
5|
6|
             G
va para mi papá...
1|-3-3-3--5-5-5--3/5-3-|
2|-5-5-5--7-7-7--5/7-5-|
3|
4|
5|
6|
               A
se escapó al viento...
1|-7-7-7--9--9--9---10-7-9--|
2|-8-8-8--10-10-10--12-8-10-|
3|
4|
5|
6|
      A7      Bm7
nos dejó solitos...
1|-------2---------------|
2|-----3---5-5p3-2-3-5---|
3|---2-----------------2-|
4|-4---------------------|
5|
6|
                 D
Esta canción de amor...
1|-2-2-2---------2-3-2-|
2|-3-3-3--3-3-3--3-5-3-|
3|--------4-4-4--------|
4|
5|
6|
            G
va para mi mamá...
1|-----3-------5-----7-|
2|-3/5-----5/7---7/9---|
3|-------5-------------|
4|
5|
6|
                 A
que aguantó todito...
1|-10-10-10--7------7-10--9-|
2|-12-12-12--8-8-8--8-12-10-|
3|-------------9-9----------|
4|
5|
6|
        A7           Bm
le dolió hasta el hueso...
1|-222-3-2-------2-----555-|
2|---------5-3-5---3-------| xxx = tremolo
3|-------------------2-----|
4|
5|
6|

                  D
Es por eso que mamá...
1|-2-2-2-2-----2-3-0-2-|
2|-3-3-3-3-3-3-3-5-2-3-|
3|---------4-4---------|
4|
5|
6|
              G
lloraba en silencio...
1|-3-3-3-3-----3-5-2-3-|
2|-5-5-5-5-5-5-5-7-3-5-|
3|---------6-6---------|
4|
5|
6|
                  A7
lloraba en las noches...
                           Bm
y como aguantó, por las mañanas.


PRECORO:

CORO:

INTRO:
 
                  D
Esta canción de amor...
1|-2-2-2-2-----2-3-0-2-|
2|-3-3-3-3-3-3-3-5-2-3-|
3|---------4-4---------|
4|
5|
6|
               G
Va pa' mis hermanos...
1|-3-3-3-3-----3-5-2-3-|
2|-5-5-5-5-5-5-5-7-3-5-|
3|---------6-6---------|
4|
5|
6|
              A7
que crecimos juntos...
1|-7-7-7--9--9--9---10-7-9--|
2|-8-8-8--10-10-10--12-8-10-|
3|
4|
5|
6|
                Bm
lo extrañamos años...
1|-------2---------------|
2|-----3---5-5p3-2-3-5---|
3|---2-----------------2-|
4|-4---------------------|
5|
6|
               D
Este grito de amor...
1|-2-2-2-2-----2-3-0-2-|
2|-3-3-3-3-3-3-3-5-2-3-|
3|---------4-4---------|
4|
5|
6|
                G
se lo doy al cielo...
1|-3-3-3-3-----3-5-2-3-|
2|-5-5-5-5-5-5-5-7-3-5-|
3|---------6-6---------|
4|
5|
6|
                A7       (rasgueo1)(nota2)
le pregunto tanto... tanto tanto...
             Bm
no contesta nada...

PRECORO:

CORO FINAL:


Bm                  G
Oye cucú papá se fue,
           A7               F#m   
Prende la luz, que tengo miedo.
1|-0-2-0--------|
2|--------3-2-3-|
3|--------------|
Bm                 G
Oye cucú papá se fue,
            A7               F#m
Prende la luz, y apaga el tiempo.
1|-0-2-0--------|
2|--------3-2-3-|
3|--------------|
Bm                 G
Oye cucú papá se fue,
            A7              F#m
prende la luz, como te extraño
1|-----0-------|
2|-2-3-2-3-2-3-|
3|-3-4---4-3-4-|
Bm                 G                 
Oye cucú papá se fue...
           A7                                v
prende la luz... (un rasgueo en esta nota 1|-5- )
                   es lo mismo que A7     2|-2-
                   pero con el 5 extra    3|-0-
                                          4|-2-
                                          5|-0-
                                          6|-0-

OUTRO: Es el INTRO pero 3 veces y termianas con rasgueo
       en D


NOTAS:
nota1: el coro lleva arpegio acompañado de acordes
       voy a poner el arpegio completo separando
       cada parte por la nota que lleva. cuando lo toquen
       háganlo concordar con las notas en el coro.

   Bm                         G
1|-------------2------------|-3-----------3------------|
2|-------3-----3-------3----|-3--------3--3-------3----|
3|---4-------4-----4------4-|------4-----------4-----4-|
4|-4-------------4----------|----5-----------5---------|
5|--------------------------|--------------------------|
6|--------------------------|--------------------------|

   A7                   *
1|-0-------0-0-----------|-2----------2-| Aqui empiezan
2|-2-------2-2-------2---|-2----------2-| los riffs de los 
3|-----0---------0-----0-|---------2----| coros  
4|---2---------2---------|------2-------|  
5|-----------------------|---4----------|
6|-----------------------|--------------|

Esto se hace 2 veces y a la segunda se termina en *
ahi empieza este riff (ojo, nomas para los primeros 2 coros)
1|-0h2--2-2-0-2-|
2|-2/3--3-3-2-3-|
3|
4|
5|
6|

nota2: el rasgueo de A7 es

          v'-^-v-^-v--tap--v'-^-v-^-v--v
       1|-0--0-0-0-0---x---0--0-0-0-0--0-|
       2|-2--2-2-2-2---x---2--2-2-2-2--2-|
       3|-0--0-0-0-0---x---0--0-0-0-0--0-|
       4|-2--2-2-2-2---x---2--2-2-2-2--2-|
       5|-0--0-0-0-0---x---0--0-0-0-0--0-|
       6|-0--0-0-0-0---x---0--0-0-0-0--0-|

v'= rasgueo hacia abajo, con tremolo
^ = rasgueo hacia arriba
v = rasgueo hacia abajo, simple
Suggest correction
Give kudos to tab author, rate the tab!
1 2 3 4 5
comments
print report bad tab
guest
Wanna post a correction for this tab? Suggest correction