Oops, an error
Loading. Please wait.

El Verdadero Amor Perdona Chords

version 4
version 4

Whole song

Interactive

196 views 1 this week
no commentswrite comment
1 2 3 4 5
3 more votes to show rating
add to favorites
launch autoscroll
font size
0
reset
transpose
0
reset
simplify chords
display chords
guitar tuner
×
Best way to learn
"El Verdadero Amor Perdona"
Autoscroll
slow
fast
+/-
esc
set tempo
stop
INTRO: D#m A#m B F#

e|----------------------|----------------------|
B|----------------------|----------------------|
G|----------------------|----------------------|
D|-8----8----8------8---|----------------------|
A|----6----6----6-8---9-|-8----8----8------8---|
E|----------------------|----6----6----6-7---9-|

e|----------------------|----------------------|
B|----------------------|----------------------|
G|----------------------|-6----6----6------6---|
D|-4----4----4------4---|----4----4----4-6---8-|
A|----2----2----2-4---6-|----------------------|
E|----------------------|----------------------|

              Tienes todos los espacios
e|----------------------|----------------------|
B|----------------------|----------------------|
G|----------------------|----------------------|
D|-8----8----8------8---|----------------------|
A|----6----6----6-8---9-|-8----8----8------8---|
E|----------------------|----6----6----6-7---9-|
              Inundados de tu ausencia
e|----------------------|----------------------|
B|----------------------|----------------------|
G|----------------------|-6----6----6------6---|
D|-4----4----4------4---|----4----4----4-6---8-|
A|----2----2----2-4---6-|----------------------|
E|----------------------|----------------------|
              Inundados de silencio
e|----------------------|----------------------|
B|----------------------|----------------------|
G|----------------------|----------------------|
D|-8----8----8------8---|----------------------|
A|----6----6----6-8---9-|-8----8----8------8---|
E|----------------------|----6----6----6-7---9-|
              No hay palabras, no hay perdón
e|----------------------|----------------------|
B|----------------------|----------------------|
G|----------------------|-6----6----6----------|
D|-4----4----4------4---|----4----4----8-6-4-6-|
A|----2----2----2-4---6-|----------------------|
E|----------------------|----------------------|

D#m                A#m
   Tú me tienes olvidado
B                   F#
   No respondes al llamado
D#m                     A#m
   No eches tierra a la palabra
                 B
Me condenas a la nada
                       C#
No me entierres sin perdón


D#m                       A#m
Mira, corazón, qué es el engaño
                   B
Se revierte y hace daño
                  F#
Se revienta en el aire
             A#m
Como pompas de jabón

D#m                   A#m
¿Cómo pude haberte yo herido
                B
Engañarte y ofendido?
                     F#
Alma gemela, no te olvido
                     A#m
Aunque me arranque el corazón


Bsus2    C#7            F#
Ay! El rencor que nos envenena
        A#m
Nos hace daño
Bsus2                 C#
Aunque no regreses corazón
            F#   F#7
Has de perdonarme

                     B
El verdadero amor perdona
       Bm           F#
No abandona, no se quiebra
        D#m
No ambiciona
       B                    C#
No revienta como pompas de jabón.


D#m A#m B F#


D#m                 A#m
   Un error es algo humano
B                    F#
  No justifico la traición
D#m               A#m
   Los amantes verdaderos se comprenden
 B                         F#
Se aman y se olvidan del rencor

D#m                      A#m
   La noche empieza a amotinarse
B                      F#
  De sueños rotos y el dolor
D#m                   A#m
   Y me revuelco en la cama
                 B
Aferrándome a la nada
                 C#
Implorando tu perdón


D#m                       A#m
Mira, corazón, cuánto te extraño
                  B
Pasan días, pasan años
                   F#
Y, mi vida, se revientan
                A#m
Como pompas de jabón

D#m                   A#m
¿Cómo pude haberte yo herido
                B
Engañarte y ofendido?
                     F#
Alma gemela, no te olvido
                     A#m
Aunque me arranque el corazón


Bsus2    C#7            F#
Ay! El rencor que nos envenena
        A#m
Nos hace daño
Bsus2                 C#
Aunque no regreses corazón
            F#   F#7
Has de perdonarme


                     B
El verdadero amor perdona
       Bm           F#
No abandona, no se quiebra
        D#m
No ambiciona
       B                    C#
No revienta como pompas de jabón.

D#m A#m B F#


D#m                   A#m
  El verdadero amor perdona
B                     F#
  El verdadero amor perdona
D#m                  A#m
   Si el amor es verdadero
B                       F#
   No se quiebra, no abandona
D#m                  A#m
   Si el amor es verdadero
B
   No se quiebra, no abandona
Suggest correction
Give kudos to tab author, rate the tab!
1 2 3 4 5
comments
print report bad tab
guest
You may want to rate the tab now too:
select rating
Wanna post a correction for this tab? Suggest correction