Oops, an error
Loading. Please wait.

El Viento En La Isla Tab

version 2
version 2

Whole song

7 views 1 this week
no commentswrite comment
1 2 3 4 5
3 more votes to show rating
add to favorites
launch autoscroll
font size
0
reset
how to read this tab
guitar tuner
×
Best way to learn
"El Viento En La Isla"
Autoscroll
slow
fast
+/-
esc
set tempo
stop
(04 - marzo - 07)

A las tabs anteriores les faltan detalles...
espero les guste... alguna duda ahí está mi correo

.:PABLO NERUDA:.

EL VIENTO ES UN CABALLO:
ÓYELO CÓMO CORRE
POR EL MAR, POR EL CIELO.

QUIERE LLEVARME: ESCUCHA
CÓMO RECORRE EL MUNDO
PARA LLEVARME LEJOS.

ESCÓNDEME EN TUS BRAZOS
POR ESTA NOCHE SOLA,
MIENTRAS LA LLUVIA ROMPE
CONTRA EL MAR Y LA TIERRA
SU BOCA INNUMERABLE.

ESCUCHA CÓMO EL VIENTO
ME LLAMA GALOPANDO
PARA LLEVARME LEJOS.

CON TU FRENTE EN MI FRENTE,
CON TU BOCA EN MI BOCA,
ATADOS NUESTROS CUERPOS
AL AMOR QUE NOS QUEMA,
DEJA QUE EL VIENTO PASE
SIN QUE PUEDA LLEVARME.

DEJA QUE EL VIENTO CORRA
CORONADO DE ESPUMA,
QUE ME LLAME Y ME BUSQUE
GALOPANDO EN LA SOMBRA,
MIENTRAS YO, SUMERGIDO
BAJO TUS GRANDES OJOS,
POR ESTA NOCHE SOLA
DESCANSARÉ, AMOR MÍO...

 SE REPITE 4 VECES
|-------------0---|-----------------| e
|-3---3---3-------|-3---3---3---1P0-| B
|---0---0---0---0-|---2---2---2-----| G
|-----------------|-----------------| D
|-----------------|-----------------| A
|-3---------------|-2---------------| E

flauta
D|--12~--14-12--7--10--9--9---|---7--10?9h10p9--7--4--5--|

|-----------------|-----------------||-----------------|-----------------|
|-3---3---3---3---|-3---3---0---1---||-3---3---3---3---|-3---3---1---0---|
|---0---0---0---0-|---2---2---2---2-||---0---0---0---0-|---2---2---2---2-|
|-----------------|-----------------||-----------------|-----------------|
|-----------------|-----------------||-----------------|-----------------|
|-3---------------|-2---------------||-3---------------|-2---------------|

|-----------------|-----------------||-----------------|-----------------|
|-0---0---1---3---|-3---3-------1---||-0---0---0---0---|-0---0---1---3---|
|---0---0---0---0-|---2---2---2---2-||---0---0---0---0-|---0---0---0---0-|
|-----------------|---------1-------||-----------------|---------2-------|
|-----------------|-----------------||-----------------|-------------2---|
|-3---------------|-2---------------||-0---------------|-0---------------|

|-----------------|---------0---1---||-0---------------|---------3---1---|
|-1---1---1---0---|-3---3-----------||-----1---1---1---|-3---3-----------|
|---0---0---0---0-|---0---0---0---0-||---0---0---0---0-|---0---0---0---0-|
|-----------------|-----------------||-----------------|-----------------|
|-3---------------|-----------------||-3---------------|-----------------|
|-----------------|-3---------------||-----------------|-3---------------|

|-0---0---1---3---|-3-----------0---|
|---1---1---1---1-|-----0---0-------|
|-----------------|---0---0---1---1-|
|-----------------|-----------------|
|-3---------------|-----------------|
|-----------------|-3-------4-------|

|-----------------|-----------------||-----------------|-----------------|
|-1---1---1---1---|-1---1---1---1---||-1---1---1---1---|-1---1---1---1---|
|---2---2---2---2-|---2---2---2---2-||---2---2---2---2-|---2---2---2---2-|
|-----------------|-----------------||-----------------|-----------------|
|-0---------------|-----------------||-----------------|-----------------|
|-----------------|-3---------------||-2---------------|-1---------------|

|-------------------|      |-----------------|---------|
|-3---3---1h3-1-0-1-|      |-1---1---1---1---|-1---3---|
|---0---0-----------|      |---0---0---0---0-|---0---0-|
|-------------------|      |-----------------|---------|
|-------------------|      |-3---------------|-3---2---|
|-3-----------------|      |-----------------|---------|

ESTAS DOS ULTIMAS PARTES SE REPITEN 3 VECES C/U

|-----------------|-----------------|-------------0---|
|-1---1---1---1---|-1---1---3---3---|-0---0---3-------|
|---2---2---2---2-|---2---2---2---2-|---1---1---1---1-|
|-----------------|---------0-------|-----------------|
|-0---------------|-----------------|-----------------|
|---------3-------|-2---------------|-0---------------|

|-----------------|-----------------|---------0-------|
|-1---1---1---1---|-1---1---3---3---|-0---0-------3---|
|---2---2---2---2-|---2---2---2---2-|---1---1---1---1-|
|-----------------|---------0-------|-----------------|
|-0---------------|-----------------|-----------------|
|---------3-------|-2---------------|-0---------------|

ESTE ES EL FINAL MEJORADO, ALGUNOS DETALLES :)


e |-----------------------------------
B |-----------------------------------
G |-----------------------------------
D |-10-12-14--10-12-14-14h15p14?-7-7--
A |-----------------------------------
E |-----------------------------------

----------------------8-8----------------------
-----------------------------------------------
---------9-9-----5/9-------9p7-----------------
-9p7-6-------------------------10-9p10---7p6-7-
-----------------------------------------------
-----------------------------------------------

SE REPITEN 2 VECES
-------------------------------------------------------------
------------------------10-10---12-12-13---13-12--10-9-------
------7------------------9--9---12-12-12---12-12--10-9-(9~)-
-9-10---10-9p10---7-6----------------------------------------
-------------------------------------------------------------
-------------------------------------------------------------

----------------------------------------|
-10-10--12-15-13--12/13-12--10-9-(9~)--|
--9--9--12-14-12--12--------10-9-(9~)--|
----------------------------------------|
----------------------------------------|
----------------------------------------|

POR FIN EL FIn
Suggest correction
Give kudos to tab author, rate the tab!
1 2 3 4 5
comments
print report bad tab
guest
You may want to rate the tab now too:
select rating
Wanna post a correction for this tab? Suggest correction