Oops, an error
Loading. Please wait.

En El Muelle De San Blás Tab

version 7
version 7

Interactive

by Maná
46 views 1 this week
no commentswrite comment
1 2 3 4 5
3 more votes to show rating
add to favorites
launch autoscroll
font size
0
reset
how to read this tab
guitar tuner
×
Best way to learn
"En El Muelle De San Blás"
Autoscroll
slow
fast
+/-
esc
set tempo
stop
Arpegio de la Intro y las estrofas: ( Em - A - D - G )
----------------------------------

  Em                A                 D                 G
E|---------7-------|---------5-------|---------5-------|---------3----2---|
B|-----8-------8---|-----5-------5---|-----7-------7---|-----3----------3-|
G|---9---9---9---9-|---6---6---6---6-|---7---7---7---7-|---4---4---4------|
D|-----------------|-----------------|-----------------|------------------|
A|-----------------|-----------------|-5---------------|------------------|
e|-0---------------|-5---------------|-----------------|-3----------------|

Em                     A                    D                          G
  Ella despidio a su amor. El partio en un barco en el muelle de San Blas.
Em                  A                  D                        G
  El juro que volveria y empapada en llanto ella juro que esperaria.
Em                  A                             D          G
  Miles de lunas pasaron y siempre ella estaba en el muelle esperando.
Em                     A                  D             G
  Muchas tardes se anidaron, se anidaron en su pelo y en sus labios.

Em - A - D - G (x2)

  Llevaba el mismo vestido y por si el volviera no se fuera a equivocar
  Los cangrejos le mordian sus ropajes, su tristeza y su ilusion
  Y el tiempo se escurrio y sus ojos se le llenaron de amaneceres
  Y del mar se enamoro y su cuerpo se enrraizo en el muelle.

Coro:
----

  D2                 A/C#               D2/B              A/C#
E|---------0-------|---------0-------|---------0-------|---------0-------|
B|-----3-------3---|-----2-------2---|-----3-------3---|-----2-------2---|
G|---2---2---2---2-|---2---2---2---2-|---2---2---2---2-|---2---2---2---2-|
D|-0---------------|-----------------|-----------------|-----------------|
A|-----------------|-4---------------|-2---------------|-4---------------|
e|-----------------|-----------------|-----------------|-----------------|

  D2                 A/C#               G                 A/C#
E|---------0-------|---------0-------|---------3-------|---------0-------|
B|-----3-------3---|-----2-------2---|-----3-------3---|-----2-------2---|
G|---2---2---2---2-|---2---2---2---2-|---0---0---0---0-|---2---2---2---2-|
D|-0---------------|-----------------|-----------------|-----------------|
A|-----------------|-4---------------|-----------------|-0---------------|
e|-----------------|-----------------|-3---------------|-----------------|

    D2             A/C#      D2/B            A/C#
Sola, sola en el olvido. Sola, sola con su espiritu
    D2            A/C#             G   A                      D
Sola, sola con el sol y el mar. Sola... en el Muelle de San Blas

Estrofa:
-------
  Su cabello se blanqueó pero ningun barco a su amor le devolvia.
  En el pueblo le decian. Le decian la loca del Muelle de San Blas.
  Y una tarde de abril la intentaron trasladar al manicomio.
  Nadie la pudo arrancar y del mar nunca jamas la separaron.

CORO Y DESPUES ESTE PUNTEO:

  Bm                                   G
E|-------------2---|-------------2---|-----3---2---0---|-----3---2---0---|
B|-----3---2-------|-----3---2-------|---------------3-|---------------3-|
G|---4---4---4---4-|---4---4---4---4-|---0---0---0-----|---0---0---0-----|
D|-----------------|-----------------|-----------------|-----------------|
A|-2---------------|-2---------------|-----------------|-----------------|
E|-----------------|-----------------|-3---------------|-3---------------|

  Bm
E|-------------2---|-------------2---|
B|-----3---2-------|-----3---2-------|
G|---4---4---4---4-|---4---4---4---4-|
D|-----------------|-----------------|
A|-2---------------|-2---------------|
E|-----------------|-----------------|

E|-----------------|-3-3-3-3-3-3-3-3-3-3-3-3-|
B|-----2---3---3---|-3-3-3-3-3-3-3-3-3-3-3-3-|
G|---2---2---2---2-|-2-2-2-2-2-2-2-2-2-2-2-2-|
D|-----------------|-2-2-2-2-2-2-2-2-2-2-2-2-|
A|-0---------------|-------------------------|
E|-----------------|-------------------------|

CORO X2
-------------------------------------------------------------------
RITMO EN D y G CON CEJILLA

      D         D         G    G
Se quedo, se quedo, sola, sola.
      D         D                        G    G
Se quedo, se quedo, con el sol y con el mar
      D              D                      G              G
Se quedo ahi, se quedo hasta el fin.  Se quedo ahi, se quedo,
                      D    D         G    G
en el muelle de San Blas
                  D    D    G    G
Sola, Sola se quedo.
Suggest correction
Give kudos to tab author, rate the tab!
1 2 3 4 5
comments
print report bad tab
guest
You may want to rate the tab now too:
select rating
Wanna post a correction for this tab? Suggest correction