Oops, an error
Loading. Please wait.

En El Muelle De San Blás Bass

version 3
version 3

Whole song

Interactive

by Maná
180 views 3 this week
no commentswrite comment
1 2 3 4 5
3 more votes to show rating
add to favorites
×
Save as Personal and add changes to this tab that will be seen only by you. Learn more ›
×
You can save this tab as Personal to edit and correct it or add notes. All changes will be seen only by you. Learn more »
save as personal
new!
launch autoscroll
font size
0
reset
guitar tuner
Autoscroll
slow
fast
+/-
esc
set tempo
stop
muy buena esta cancion, y muy facil ademas


Intro:(00:05)

G|---|-2-|-7-|-0-|
D|-2-|---|---|---|
A|---|---|---|---|
E|---|---|---|---|

I:
G|-------0-2-|---2-00---0-|-------0-2-|----2-00---0-
D|22--44-----|--------4---|00--44-----|---------4---
A|-----------|00----------|-----------|-------------
E|-----------|------------|-----------|33-----------

G|---------0-|-----------|---------0--|---------
D|22--22-4---|--------2--|00--00-4----|---------
A|-----------|00--444----|------------|---------
E|-----------|-----------|------------|33--3--2-

G|---------0-|-----------|---------0--|---2-00---0-
D|22-22-4----|---------2-|00--00-4----|--------4---
A|-----------|00-0-004---|------------|------------
E|-----------|-----------|------------|33----------

G|---------0-|-----------|------------|------------
D|22-22-4----|-----------|----00-2-4--|---00-2-4-0-
A|-----------|00-0-00-4--|------------|------------
E|-----------|-----------|22----------|33----------

G|-------0-2-|-----------|------------|-----------
D|22--44-----|-----------|----00-2-4--|--00-2-4-0-
A|-----------|00-0-00-4--|------------|-----------
E|-----------|-----------|22----------|33---------

G|-------0-2-|---2-00---0---|------------|-----------
D|22--44-----|--------4-----|----00-2-4--|--00-2-4-0-
A|-----------|00------------|------------|-----------
E|-----------|--------------|22----------|33---------

G|-------0-2-|---2-00---0---|------------|---2-00---0-
D|22--44-----|--------4-----|----00-2-4--|--------4---
A|-----------|00------------|------------|------------
E|-----------|--------------|22----------|33----------


Verso I:

G|---------0-|-----------|---------0--|---2-00---0-
D|22-22-4----|---------2-|00--00-4----|--------4---
A|-----------|00-0-004---|------------|------------
E|-----------|-----------|------------|33----------

G|---------0-|-----------|---------0--|---2-00---0-
D|22-22-4----|---------2-|00--00-4----|--------4---
A|-----------|00-0-004---|------------|------------
E|-----------|-----------|------------|33----------

G|---------0-|-----------|------------|---2-00---0-
D|22-22-4----|-----------|----00-2-4--|--------4---
A|-----------|00-0-004---|------------|------------
E|-----------|-----------|22----------|33----------

G|---------0-|---2-00---0---|------------|-----------
D|22-22-4----|--------4-----|----00-2-4--|-----------
A|-----------|00------------|------------|---0---4---
E|-----------|--------------|22----------|33---------


Coro:

G|-------0-2-|-------0-2-|-------0-2-|------------
D|00--44-----|----44-----|----44-----|------------
A|-----------|44---------|22---------|44--00-00-4-
E|-----------|-----------|-----------|------------

G|-------0-2-|-------0-2-|-------0-2-|-------0-2-|----|
D|00--44-----|----44-----|----44-----|----44-----|--0-|
A|-----------|44---------|-----------|44---------|----|
E|-----------|-----------|33---------|-----------|----|


II:

G|-------0-2-|---2-00---0-|-------0-2-|----2-00---0-
D|22--44-----|--------4---|00--44-----|---------4---
A|-----------|00----------|-----------|-------------
E|-----------|------------|-----------|33-----------


Verso II:

G|---------0-|-----------|---------0--|---2-00---0-
D|22-22-4----|---------2-|00--00-4----|--------4---
A|-----------|00-0-004---|------------|------------
E|-----------|-----------|------------|33----------

G|---------0-|-----------|---------0--|---2-00---0-
D|22-22-4----|---------2-|00--00-4----|--------4---
A|-----------|00-0-004---|------------|------------
E|-----------|-----------|------------|33----------

G|---------0-|-----------|------------|---2-00---0-
D|22-22-4----|-----------|----00-2-4--|--------4---
A|-----------|00-0-004---|------------|------------
E|-----------|-----------|22----------|33----------

G|---------0-|---2-00---0---|------------|-----------
D|22-22-4----|--------4-----|----00-2-4--|-----------
A|-----------|00------------|------------|---0---4---
E|-----------|--------------|22----------|33---------


Coro:

G|-------0-2-|-------0-2-|-------0-2-|------------
D|00--44-----|----44-----|----44-----|------------
A|-----------|44---------|22---------|44--00-00-4-
E|-----------|-----------|-----------|------------

G|-------0-2-|-------0-2-|-------0-2-|-------0-2-|
D|00--44-----|----44-----|----44-----|----44-----|
A|-----------|44---------|-----------|44---------|
E|-----------|-----------|33---------|-----------|


G|-----------------------------------------------22-00---0-
D|-----------0-------------0--------------0------------4---
A|2-2--22-20----2-2--22-20---------------------------------
E|-----------------------------3-3--33-33----3-3-----------

G|------------------------------------------2222------
D|-----------0-------------0--------------------------
A|2-2--22-20----2-2--22-20-----0-0--00-00-0-------4---
E|----------------------------------------------------


Coro:

G|-------0-2-|-------0-2-|-------0-2-|------------
D|00--44-----|----44-----|----44-----|------------
A|-----------|44---------|22---------|44--00-00-4-
E|-----------|-----------|-----------|------------

G|-------0-2-|-------0-2-|-------0-2-|-------0-2-|
D|00--44-----|----44-----|----44-----|----44-----|
A|-----------|44---------|-----------|44---------|
E|-----------|-----------|33---------|-----------|

G|-------0-2-|-------0-2-|-------0-2-|------------
D|00--44-----|----44-----|----44-----|------------
A|-----------|44---------|22---------|44--00-00-4-
E|-----------|-----------|-----------|------------

G|-------0-2-|-------0-2-|-------0-2-|-------0-2-|----|
D|00--44-----|----44-----|----44-----|----44-----|--0-|
A|-----------|44---------|-----------|44---------|----|
E|-----------|-----------|33---------|-----------|----|


Parte final(04:56)inicia asi:

G|-0000---|-------------------------------------------------
D|--------|0-0-0-0-0-0-0-0-0-0-0-0--------------------------
A|------4-|-------------------------------------------------
E|--------|-------------------------3-3-3-3-3-3-3-3-3-3-3-3-

G|------------------------------------------------- se repite
D|0-0-0-0-0-0-0-0-0-0-0-0-------------------------- hasta el
A|------------------------------------------------- final
E|-------------------------3-3-3-3-3-3-3-3-3-3-3-3-


FIN
Suggest correction
Give kudos to tab author, rate the tab!
1 2 3 4 5
comments
print report bad tab
guest
Wanna post a correction for this tab? Suggest correction