Oops, an error
Loading. Please wait.

En El Muelle De San Blas (Unplugged) Tab

version 1
version 1

Whole song

by Maná
179 views 1 this week
no commentswrite comment
1 2 3 4 5
3 more votes to show rating
add to favorites
×
Save as Personal and add changes to this tab that will be seen only by you. Learn more ›
×
You can save this tab as Personal to edit and correct it or add notes. All changes will be seen only by you. Learn more »
save as personal
new!
launch autoscroll
font size
0
reset
how to read this tab
guitar tuner
Autoscroll
slow
fast
+/-
esc
set tempo
stop
Intro:

|--------0---------------0-----------------------------------|
|-----3-----3---------2-----2-------------3-----------0------|
|----0--0--0--0-----0--0---0--0-------2-----2------0-----0---|
|--2---------------------------------0--0--0--0---0--0--0--0-|
|-----------------0------------------------------------------|
|----------------------------------2-------------3-----------|

|--------0---------------0-----------------------------------|
|-----3-----3---------2-----2-------------3-----------0------|
|----0--0--0--0-----0--0---0--0-------2-----2------0-----0---|
|--2---------------------------------0--0--0--0---0--0--0--0-|
|-----------------0------------------------------------------|
|----------------------------------2-------------3-----------|

|--------0---------------0-------------------------------0---|
|-----3-----3---------2-----2-------------3--------------2---|
|----0--0--0--0-----0--0---0--0-------2-----2------0-----0---|
|--2---------------------------------0--0--0--0---0--0---2---|
|-----------------0--------------------------------------0---|
|----------------------------------2-------------3-----------|


Verso:

Acompaña a los versos
|---------7------------------5-------------------5---------|
|-----8--------8---------5--------5----------5--------5----|
|---9---9----9---9-----6---6----6---6------7---7----7---7--|
|----------------------------------------------------------|
|-7--------------------------------------5-----------------|
|--------------------5-------------------------------------|

|---------3-----2----|
|-----3-----------3--|
|---4---4----4-------|  x8
|--------------------|
|--------------------|
|-3------------------|

Llevaba el mismo vestido.....
|--------0---------------0-----------------------------------|
|-----3-----3---------2-----2-------------3-----------0------|
|----0--0--0--0-----0--0---0--0-------2-----2------0-----0---|  x4
|--2---------------------------------0--0--0--0---0--0--0--0-|
|-----------------0------------------------------------------|
|----------------------------------2-------------3-----------|

Coro:

|---------2------------------0--------|
|-----3--------3---------2--------0---|
|---2---2----2---2-----2---2----2---2-|
|-0-----------------------------------|
|--------------------4----------------|
|-------------------------------------|

 ---------2-----------------0-------|
 -----3-------3---------2-------0---|
 ---4---4---4---4-----2---2---2---2-|  x2
 -----------------------------------|
 -2-----------------4---------------|
 -----------------------------------|

|----------------------------0---------2---|
|--------0---------------2-------0-----3---|
|-----0------0---------2---2---2---2---2---|
|---0---0--0---0-----------------------0---|
|--------------------0---------------------|
|-3----------------------------------------|

Verso:

|---------7------------------5-------------------5---------|
|-----8--------8---------5--------5----------5--------5----|
|---9---9----9---9-----6---6----6---6------7---7----7---7--|
|----------------------------------------------------------|
|-7--------------------------------------5-----------------|
|--------------------5-------------------------------------|

|---------3-----2----|
|-----3-----------3--|
|---4---4----4-------|  x3
|--------------------|
|--------------------|
|-3------------------|

|--------0---------------0-----------------------------------|
|-----3-----3---------2-----2-------------3-----------0------|
|----0--0--0--0-----0--0---0--0-------2-----2------0-----0---|  x2
|--2---------------------------------0--0--0--0---0--0--0--0-|
|-----------------0------------------------------------------|
|----------------------------------2-------------3-----------|

Coro:

|---------2------------------0--------|
|-----3--------3---------2--------0---|
|---2---2----2---2-----2---2----2---2-|
|-0-----------------------------------|
|--------------------4----------------|
|-------------------------------------|

 ---------2-----------------0-------|
 -----3-------3---------2-------0---|
 ---4---4---4---4-----2---2---2---2-|  x2
 -----------------------------------|
 -2-----------------4---------------|
 -----------------------------------|

|----------------------------0-------|
|--------0---------------2-------0---|
|-----0------0---------2---2---2---2-|
|---0---0--0---0---------------------|
|--------------------0---------------|
|-3----------------------------------|

|--2--|--3--|
|--3--|--3--|
|--4--|--0--|
|--4--|--0--|
|--2--|--2--|
|-----|--3--|

|--2--|--0--|--3--|--0--|
|--3--|--2--|--3--|--2--|
|--4--|--2--|--0--|--2--|
|--4--|--2--|--0--|--2--|
|--2--|--0--|--2--|--0--|
|-----|-----|--3--|-----|

|---------2------------------0---
|-----3--------3---------2-------
|---2---2----2---2-----2---2-----
|-0------------------------------
|--------------------4-----------
|--------------------------------

|---------2-----------------0--|
|-----3-------3---------2------|
|---4---4---4---4-----2---2----|
|------------------------------|
|-2-----------------4----------|
|------------------------------|

|---------2------------------0--------|
|-----3--------3---------2--------2---|
|---2---2----2---2-----2---2----2---2-|
|-0-----------------------------------|
|--------------------4----------------|
|-------------------------------------|

|----------------------------0------------|
|--------0---------------2-------0--------|
|-----0------0---------2---2---2---2------|
|---0---0--0---0--------------------------|
|--------------------0--------------------|
|-3---------------------------------------|

Coro:

|---------2------------------0--------|
|-----3--------3---------2--------0---|
|---2---2----2---2-----2---2----2---2-|
|-0-----------------------------------|
|--------------------4----------------|
|-------------------------------------|

 ---------2-----------------0-------|
 -----3-------3---------2-------0---|
 ---4---4---4---4-----2---2---2---2-|  x2
 -----------------------------------|
 -2-----------------4---------------|
 -----------------------------------|

|----------------------------0---------2---|
|--------0---------------2-------0-----3---|
|-----0------0---------2---2---2---2---2---|
|---0---0--0---0-----------------------0---|
|--------------------0---------------------|
|-3----------------------------------------|


|--5--|--3--|
|--5--|--3--|
|--7--|--0--| x3
|--7--|--0--|
|--5--|--2--|
|-----|--3--|

|-9-9-9-9-10-10-10-10-12-12-9-9-9-9-10-10-10-10-12-12--
|-9-9-9-9--9--9--9--9--9--9-9-9-9-9--9--9--9--9--9--9--
|------------------------------------------------------
|------------------------------------------------------
|------------------------------------------------------
|------------------------------------------------------

|-------------------------------------------------|
|--9-9-9-9-9-9-7-7-7-7-7-7-9-9-9-9-9-7-7-7-7-7----|
|-----------------------------------------------9-| x4
|-------------------------------------------------|
|-------------------------------------------------|
|-------------------------------------------------|

D A D

Espero que les sirva
Saludos nos vemos
Suggest correction
Give kudos to tab author, rate the tab!
1 2 3 4 5
comments
print report bad tab
guest
Wanna post a correction for this tab? Suggest correction