Oops, an error
Loading. Please wait.

Envenéname Tab

by Maná
46 views 1 this week
no commentswrite comment
1 2 3 4 5
2 more votes to show rating
add to favorites
×
Save as Personal and add changes to this tab that will be seen only by you. Learn more ›
×
You can save this tab as Personal to edit and correct it or add notes. All changes will be seen only by you. Learn more »
save as personal
new!
launch autoscroll
font size
0
reset
how to read this tab
guitar tuner
Autoscroll
slow
fast
+/-
esc
set tempo
stop
Oigan la rola para guiarse.

Intro:

e|------------------------|---------|---------|---------|---------|
b|------------------------|---------|---------|---------|---------|
g|--5-5-5-5-5-5-5-5-5-5-5-|-5-5-5-5-|-5-5-5-5-|-7-7-7-7-|-5-5-5-5-|
D|--5-5-5-5-5-5-5-5-5-5-5-|-5-5-5-5-|-5-5-5-5-|-7-7-7-7-|-5-5-5-5-|
A|--3-3-3-3-3-3-3-3-3-3-3-|-2-2-2-2-|-0-0-0-0-|-5-5-5-5-|-3-3-3-3-|
E|------------------------|---------|---------|---------|---------|

e|---------|---------|---------|---------|---------|
b|---------|---------|---------|---------|---------|
g|-5-5-5-5-|-5-5-5-5-|-5-5-5-5-|-7-7-7-7-|-5-5-5-5-|
D|-5-5-5-5-|-5-5-5-5-|-5-5-5-5-|-7-7-7-7-|-5-5-5-5-|
A|-2-2-2-2-|-3-3-3-3-|-0-0-0-0-|-5-5-5-5-|-3-3-3-3-|
E|---------|---------|---------|---------|---------|

e|---------|---------|---------|---------|---------|---------|----|
b|---------|---------|---------|---------|---------|---------|----|
g|-5-5-5-5-|-5-5-5-5-|-5-5-5-5-|-7-7-7-7-|-5-5-5-5-|-7-7-7-7-|-9--|
D|-5-5-5-5-|-5-5-5-5-|-5-5-5-5-|-7-7-7-7-|-5-5-5-5-|-7-7-7-7-|-9--|
A|-2-2-2-2-|-3-3-3-3-|-0-0-0-0-|-5-5-5-5-|-3-3-3-3-|-5-5-5-5-|-7--|
E|---------|---------|---------|---------|---------|---------|----|

Este riff va en el intro:

uuuuuuu:

e|-8-8-8-8-8-|-10-10-10-10-|-8-8-10-10--|
b|-8-8-8-8-8-|-10-10-10-10-|-8-8-10-10--|

uuuuuuu:

e|-8-8-8-8-8-|-10-10-10-10-|-8-8-10-10-12-|
b|-8-8-8-8-8-|-10-10-10-10-|-8-8-10-10-12-|

E5            A5             C5     A5
Me he vuelto adicto a tu veneno
E5            A5                 C5      A5
me he vuelto adicto a tu tersa piel

Riff:

 e|-------3-------55-------3--------77-|
 b|-55-33---55-33----55-33----55-33----| x2

E5                      A5
esta trenzada mi sed mi locura
      C5            A5
a tu cintura amor
E5                               A5
soy un preso irremediable del deseo
                C5     A5
que me aferra a ti
C5            E5
ella me tiene envenado
C5            E5
ella me tiene intoxicado
C5          G5            D5
olleme nena envenename

Riff: b|---10----8---10----8---10--8-|
      g|-7----7----7----7------------|

Intro:

e|---------|---------|---------|---------|---------|
b|---------|---------|---------|---------|---------|
g|-5-5-5-5-|-5-5-5-5-|-5-5-5-5-|-7-7-7-7-|-5-5-5-5-|
D|-5-5-5-5-|-5-5-5-5-|-5-5-5-5-|-7-7-7-7-|-5-5-5-5-|
A|-2-2-2-2-|-3-3-3-3-|-0-0-0-0-|-5-5-5-5-|-3-3-3-3-|
E|---------|---------|---------|---------|---------|

e|---------|---------|---------|---------|---------|---------|----|
b|---------|---------|---------|---------|---------|---------|----|
g|-5-5-5-5-|-5-5-5-5-|-5-5-5-5-|-7-7-7-7-|-5-5-5-5-|-7-7-7-7-|-9--|
D|-5-5-5-5-|-5-5-5-5-|-5-5-5-5-|-7-7-7-7-|-5-5-5-5-|-7-7-7-7-|-9--|
A|-2-2-2-2-|-3-3-3-3-|-0-0-0-0-|-5-5-5-5-|-3-3-3-3-|-5-5-5-5-|-7--|
E|---------|---------|---------|---------|---------|---------|----|

Este riff va en el intro:

uuuuuuu:

e|-8-8-8-8-8-|-10-10-10-10-|-8-8-10-10--|
b|-8-8-8-8-8-|-10-10-10-10-|-8-8-10-10--|

uuuuuuu:

e|-8-8-8-8-8-|-10-10-10-10-|-8-8-10-10-12-|
b|-8-8-8-8-8-|-10-10-10-10-|-8-8-10-10-12-|

E5          A5               C5    A5
Herizaba mi piel de sensaciones
E5          A5                  C5    A5
quisiera liberar mis emociones hoy

Riff:

 e|-------3-------55-------3--------77-|
 b|-55-33---55-33----55-33----55-33----| x2

E5                            A5                   C5           A5
y nos bebimos cada beso cada vena los suspiros tu veneno amor
E5                    A5
ella me tiene envenenado
      C5              A5
de tentaciones y de amor
C5            E5
ella me tiene envenado
C5            E5
ella me tiene intoxicado
C5          G5            D5
olleme nena envenename

Riff: b|---10----8---10----8---10--8-|
      g|-7----7----7----7------------|

C5            E5
ella me tiene envenado
C5            E5
ella me tiene intoxicado
C5          G5            D5
olleme nena envenename           Nooo!

Riff: b|---10----8---10----8---10--8-|
      g|-7----7----7----7------------|

Solo:

e|-------------------------------------------------------17b--15b-|
b|--15b--13-12--------------------------15b-15b-15b--13-----------|
g|--------------14-12---------12h14p12----------------------------|
D|---------------------14-14--------------------------------------|
A|----------------------------------------------------------------|
E|----------------------------------------------------------------|

e|-----------------------------------------------------------|
b|--12-14b~--12----------------------------------------------|
g|--12-14b~--12--55555555/77777777/88888888/1010101010101010-|
D|---------------22222222/44444444/55555555/7-7-7-7-7-7-7-7--|
A|-----------------------------------------------------------|
E|-----------------------------------------------------------|

e|-----------------------------------------------------|
b|-----------------------------------------------------|
g|--111111111111111/1313131313131313/1515151515151515/-|
D|--8-8-8-8-8-8-8-8/1010101010101010/1212121212121212/-|
A|-----------------------------------------------------|
E|-----------------------------------------------------|

e|----------------------------------------------------|
b|----------------------------------------------------|
g|--1717171717171717/1919191919191919/19191919191919--|
D|--1414141414141414/1616161616161616/17171717171717--|
A|----------------------------------------------------|
E|----------------------------------------------------|

G                     D
Adiccion a tus labios tengo adiccion
               Em            C
intoxicame de tu amor     envenename
G                     D
adiccion no te puedo evitar amor
                  Em                    Am          C
a tus labios tus risas tus muslos tus pechos envenename
C5             E5
ella me tiene envenado
C5             E5
ella me tiene intoxicado
C5           G5           D
olleme nena envenename

Riff: b|---10----8---10----8---10--8-|
      g|-7----7----7----7------------|

C5             E5
ella me tiene envenado
C5             E5
ella me tiene intoxicado
C5           G5           D
olleme nena envenename         Nooo!!

Riff: b|---10----8---10----8---10--8-|
      g|-7----7----7----7------------|


e|---------|---------|---------|---------|---------|
b|---------|---------|---------|---------|---------|
g|-5-5-5-5-|-5-5-5-5-|-5-5-5-5-|-7-7-7-7-|-5-5-5-5-|
D|-5-5-5-5-|-5-5-5-5-|-5-5-5-5-|-7-7-7-7-|-5-5-5-5-|
A|-2-2-2-2-|-3-3-3-3-|-0-0-0-0-|-5-5-5-5-|-3-3-3-3-|
E|---------|---------|---------|---------|---------|

e|---------|---------|---------|---------|---------|---------|----|
b|---------|---------|---------|---------|---------|---------|----|
g|-5-5-5-5-|-5-5-5-5-|-5-5-5-5-|-7-7-7-7-|-5-5-5-5-|-7-7-7-7-|-9--|
D|-5-5-5-5-|-5-5-5-5-|-5-5-5-5-|-7-7-7-7-|-5-5-5-5-|-7-7-7-7-|-9--|
A|-2-2-2-2-|-3-3-3-3-|-0-0-0-0-|-5-5-5-5-|-3-3-3-3-|-5-5-5-5-|-7--|
E|---------|---------|---------|---------|---------|---------|----|

Este riff va en el intro:

uuuuuuu:

e|-8-8-8-8-8-|-10-10-10-10-|-8-8-10-10--|
b|-8-8-8-8-8-|-10-10-10-10-|-8-8-10-10--|

uuuuuuu:

e|-8-8-8-8-8-|-10-10-10-10-|-8-8-10-10-12-|
b|-8-8-8-8-8-|-10-10-10-10-|-8-8-10-10-12-|

Eso es todo espero les sirva
Suggest correction
Give kudos to tab author, rate the tab!
1 2 3 4 5
comments
print report bad tab
guest
Wanna post a correction for this tab? Suggest correction