Oops, an error
Loading. Please wait.

Eres Mi Religión Tab

version 1
version 1

Whole song

Interactive

264 views 1 this week
no commentswrite comment
1 2 3 4 5
3 more votes to show rating
add to favorites
launch autoscroll
font size
0
reset
how to read this tab
guitar tuner
×
Best way to learn
"Eres Mi Religión"
Autoscroll
slow
fast
+/-
esc
set tempo
stop
ERES MI RELIGIÓN
MANÁ

e|-----------------------------|
b|-----5-----5----------4------|
g|---4-----4-------6--------4--|
d|-2-----1-------6----6---6----|
a|-------------4---------------|
e|-----------------------------|

Iba caminando por las calles empapadas en olvido
e|--------2--------2------------------------------|
b|------------------------------------------------|
g|------2-------2-----------8-----9--------8-----9|
d|---4-------4-----------9-----9--------9-----9---|
a|---4-------2--------7--------------7------------|
e|------------------------------------------------|
Iba por los parques con fantasmas y ángeles caídos
e|--------2--------2------------------------------|
b|------------------------------------------------|
g|------2-------2-----------8-----9--------8-----9|
d|---4-------4-----------9-----9--------9-----9---|
a|---4-------2--------7--------------7------------|
e|------------------------------------------------|
Iba sin luz iba sin sol iba sin un sentido, iba muriéndome
e|--------2--------2------------------------------|
b|------------------------------------------------|
g|------2-------2-----------8-----9--------8-----9|
d|---4-------4-----------9-----9--------9-----9---|
a|---4-------2--------7--------------7------------|
e|------------------------------------------------|
Iba volando sobre el mar con las alas rotas
e|--------2--------2------------------------------|
b|------------------------------------------------|
g|------2-------2-----------8-----9--------8-----9|
d|---4-------4-----------9-----9--------9-----9---|
a|---4-------2--------7--------------7------------|
e|------------------------------------------------|
Ay amor apareciste en mi vida y me curaste las heridas
e|--------2--------2------------------------------|
b|------------------------------------------------|
g|------2-------2-----------8-----9--------8-----9|
d|---4-------4-----------9-----9--------9-----9---|
a|---4-------2--------7--------------7------------|
e|------------------------------------------------|
Ay amor eres mi luna eres mi sol eres mi pan de cada día
e|--------2--------2------------------------------|
b|------------------------------------------------|
g|------2-------2-----------8-----9--------8-----9|
d|---4-------4-----------9-----9--------9-----9---|
a|---4-------2--------7--------------7------------|
e|------------------------------------------------|
Apareciste con tu luz, no nunca te vas no, no te vayas no
e|------------------------------------------------------|
b|-10x10x10x10xx9xx9xx9xx9------------------------------|
g|--9xx9xx9xx9xx9xx9xx9xx9---9x9x9x8x8x8---9x9x9x8x8x8--|
d|---------------------------9x9x9x9x9x9---9x9x9x9x9x9--|
Tu eres la gloria de los dos hasta la muerte
e|------------------------------------------------------|
b|-10x10x10x10xx9xx9xx9xx9------------------------------|
g|--9xx9xx9xx9xx9xx9xx9xx9---9x9x9x8x8x8---9x9x9x8x8x8--|
d|---------------------------9x9x9x9x9x9---9x9x9x9x9x9--|

En un mundo de ilusión yo estaba desahuciado estaba abandonado
e|-7------------------------------4-----------7--------6----|
b|-7------------------------------4-----------7--------6----|
g|-8------------------------------6-----------8--------7----|
d|-9------------------------------6-----------9--------8----|
a|-9------------------------------4-----------9--------8----|
e|-7------------------------------------------7--------6----|
Mi vida sin sentido pero llegaste tu
e|-6666---5---------77777777777---|
b|-6666---5---------77777777777---|
g|-7777---6---------88888888888---|
d|-8888---7---------99999999999---|
a|-8888---7---------99999999999---|
e|-6666---5---------77777777777---|

Ay amor tu eres mi religión Tu eres luz tu eres mi sol
e|----------------------------------|
b|-----5-----5-----5----------4--4--|
g|---4-----4---------6------4----4--|
d|-2-----1-------6---6---2-------2--|
a|-------------4--------------------|
e|----------------------------------|

Abre el corazón, abre el corazón
e|-77777---4--22222---77777777--|
b|-77777---4--22222---77777777--|
g|-66666---4--22222---88888888--|
d|-77777---6--44444---99999999--|
a|-77777---6--44444---99999999--|
e|-55555---4--22222---77777777--|

e|-----------------------------|
b|-----5-----5----------4------|
g|---4-----4-------6--------4--|
d|-2-----1-------6----6---6----|
a|-------------4---------------|
e|-----------------------------|

Hace tanto tiempo corazón viví el dolor en el olvido
e|--------2--------2------------------------------|
b|------------------------------------------------|
g|------2-------2-----------8-----9--------8-----9|
d|---4-------4-----------9-----9--------9-----9---|
a|---4-------2--------7--------------7------------|
e|------------------------------------------------|
Ay amor eres mi bendición, mi religión eres mi sol que cubre el frío
e|--------2--------2------------------------------|
b|------------------------------------------------|
g|------2-------2-----------8-----9--------8-----9|
d|---4-------4-----------9-----9--------9-----9---|
a|---4-------2--------7--------------7------------|
e|------------------------------------------------|
Apareciste con tu luz, no, no me abandones, no nunca mi amor
e|------------------------------------------------------|
b|-10x10x10x10xx9xx9xx9xx9------------------------------|
g|--9xx9xx9xx9xx9xx9xx9xx9---9x9x9x8x8x8---9x9x9x8x8x8--|
d|---------------------------9x9x9x9x9x9---9x9x9x9x9x9--|
Gloria de los dos, tu eres mi sol, tu eres mi todo todo tu eres bendición
e|------------------------------------------------------|
b|-10x10x10x10xx9xx9xx9xx9------------------------------|
g|--9xx9xx9xx9xx9xx9xx9xx9---9x9x9x8x8x8---9x9x9x8x8x8--|
d|---------------------------9x9x9x9x9x9---9x9x9x9x9x9--|

En un mundo de ilusión yo estaba desahuciado estaba abandonado
e|-7------------------------------4-----------7--------6----|
b|-7------------------------------4-----------7--------6----|
g|-8------------------------------6-----------8--------7----|
d|-9------------------------------6-----------9--------8----|
a|-9------------------------------4-----------9--------8----|
e|-7------------------------------------------7--------6----|
Mi vida sin sentido pero llegaste tu
e|-6666---5---------77777777777---|
b|-6666---5---------77777777777---|
g|-7777---6---------88888888888---|
d|-8888---7---------99999999999---|
a|-8888---7---------99999999999---|
e|-6666---5---------77777777777---|

Ay amor tu eres mi religión Tu eres luz tu eres mi sol
e|----------------------------------|
b|-----5-----5-----5----------4--4--|
g|---4-----4---------6------4----4--|
d|-2-----1-------6---6---2-------2--|
a|-------------4--------------------|
e|----------------------------------|

Abre el corazón, abre el corazón
e|-77777---4--22222---77777777--|
b|-77777---4--22222---77777777--|
g|-66666---4--22222---88888888--|
d|-77777---6--44444---99999999--|
a|-77777---6--44444---99999999--|
e|-55555---4--22222---77777777--|

Ay amor tu eres mi bendición Tu eres luz tu eres mi sol
e|-------------------------------|
b|-------------------------------|
g|-9---9-9-----6--/13------------|
d|-9---9-9-----6--/12--11--9--7--|
a|-7---7-6-----4-----------------|
e|-------------------------------|
Abre el corazón, abre, abre el corazón
e|-77777---4--22222---77777777--|
b|-77777---4--22222---77777777--|
g|-66666---4--22222---88888888--|
d|-77777---6--44444---99999999--|
a|-77777---6--44444---99999999--|
e|-55555---4--22222---77777777--|

Viviré siempre a tu lado con tu luz
e|-----------------------------2---|
b|-----5-----5-------------------2-|
g|---4-----4-------6------4--------|
d|-2-----1-------6------4---4------|
a|-------------4------2------------|
e|---------------------------------|

Moriré estando a tu lado eres gloria y bendición
e|-----------------------------2---|
b|-----5-----5-------------------2-|
g|---4-----4-------6------4--------|
d|-2-----1-------6------4---4------|
a|-------------4------2------------|
e|---------------------------------|

Eres tu mi bendición eres tu mi religión
e|----------------------------------------------|
b|----------------------------------------------|
g|-9x9x9x9--9x9x9x9--6x6x6x6--8x8x8x8x8x8x8x8---|
d|-9x9x9x9--9x9x9x9--6x6x6x6--9x9x9x9x9x9x9x9---|
a|-7x7x7x7--6x6x6x6--4x4x4x4--9x9x9x9x9x9x9x9---|
e|----------------------------7x7x7x7x7x7x7x7---|
Eres tu mi eternidad y hasta eres salvación
e|----------------------------------------------|
b|----------------------------------------------|
g|-9x9x9x9--9x9x9x9--6x6x6x6--8x8x8x8x8x8x8x8---|
d|-9x9x9x9--9x9x9x9--6x6x6x6--9x9x9x9x9x9x9x9---|
a|-7x7x7x7--6x6x6x6--4x4x4x4--9x9x9x9x9x9x9x9---|
e|----------------------------7x7x7x7x7x7x7x7---|

No tenia nada hoy te tengo con la gloria, con la gloria, con la gloria
Amor, amor, amor, amor eres tu mi bendición eres mi luz eres mi sol
e|-/7x77x77x7x77--5x55x55x44----/7x77x77x7x77--5x55x55x44---|
b|-/7x77x77x7x77--5x55x55x55----/7x77x77x7x77--5x55x55x55---|
g|----------------------------------------------------------|
d|----------------------------------------------------------|
Suggest correction
Give kudos to tab author, rate the tab!
1 2 3 4 5
comments
print report bad tab
guest
You may want to rate the tab now too:
select rating
Wanna post a correction for this tab? Suggest correction