Oops, an error
Loading. Please wait.

Eres Mi Religión Tab

version 2
version 2

Whole song

Interactive

111 views 1 this week
no commentswrite comment
1 2 3 4 5
3 more votes to show rating
add to favorites
launch autoscroll
font size
0
reset
how to read this tab
guitar tuner
×
Best way to learn
"Eres Mi Religión"
Autoscroll
slow
fast
+/-
esc
set tempo
stop
Intro:

e|-----0---------0------------------------------|
B|---0-0---4-----4-----------4------------------|
G|-1-------4---4--------6--------4-6------------|
D|-2-------4----------6---6----6----------------|
A|-2-------2--------4---------------------------|
E|-0--------------------------------------------|

Verso: 
e|---------2-------2----------------------------|
B|------2--2----4--4--------0--------0----------|
G|----4-------4---------------2--------2--------|
D|-----------------------2--------2-------------|
A|---------------------2--------0---------------|
E|----------------------------------------------|

Final del verso:

e|-2-x-x-2-x-2-x-2--2-x-x-2-2-2-x-2-2--0-x-x-0-0-0-x-0-0--|
B|-2-x-x-2-x-2-x-2--4-x-x-5-5-5-x-4-4--0-x-x-0-0-0-x-0-0--|
G|-2-x-x-2-x-2-x-2--4-x-x-4-4-4-x-4-4--1-x-x-2-2-2-x-1-1--|
D|-4-x-x-4-x-4-x-4--4-x-x-4-4-4-x-4-4--2-x-x-2-2-2-x-2-2--|
A|-4-x-x-4-x-4-x-4--2-x-x-2-2-2-x-2-2--2-x-x-2-2-2-x-2-2--|
E|-2-x-x-2-x-2-x-2--x-x-x-x-x-x-x-2-2--0-x-x-0-0-0-x-0-0--|

e|-0-x-x-0-0-0-x-0-0-------------------------------------|
B|-2-x-x-0-0-0-x-2-2-------------------------------------|
G|-2-x-x-2-2-2-x-2-2-------------------------------------|
D|-2-x-x-2-2-2-x-2-2-------------------------------------|
A|-0-x-x-0-0-0-x-0-0-------------------------------------|
E|-x-x-x-x-x-x-x-x-x-------------------------------------|

Pre-coro:

e|------6-x-x-x-x-x-x--x-x-x-x-x-x--------8--x-------7--x--------|
B|------6-x-x-x-x-x-x--x-x-x-x-x-x--------8--x-------7--x--------|
G|-5\8----8-x-8-x-8-8--8-x-8-x-8-8?--8\10---10?-7\9-----9--------|
D|--------8-x-8-x-8-8--8-x-8-x-8-8----------10----------9--------|
A|--------8-x-8-x-8-8--8-x-8-x-8-8----------10----------9--------|
E|--------6-x-6-x-6-6--6-x-6-x-6-6-----------8----------7--------|

e|------6-x-x-x-x-x-x-------6-x-x-x-x-x-x-------6--x-x-x-x-x-----|
B|------6-x-x-x-x-x-x-------6-x-x-x-x-x-x-------6--x-x-x-x-x-----|
G|-5\8----8-x-8-x-8-8--5\8----8-x-8-x-8-8--5\8-----8-8-8-7-7-----|
D|--------8-x-8-x-8-8---------8-x-8-x-8-8----------8-8-8-8-8-----|
A|--------8-x-8-x-8-8---------8-x-8-x-8-8----------8-8-8-8-8-----|
E|--------6-x-6-x-6-6---------6-x-6-x-6-6----------6-6-6-6-6-----|


Coro:

e|-0-----0---0----0---0-----0----------------------|
B|-0---0-0---4----4---5---5-5---5------5-----------|
G|-1--1------4--4-----6--6------4---4--4-----------|
D|-2---------4--------6---------6--6---------------|
A|-2---------2--------4---------4------------------|
E|-0----------------------------7------------------|

e|-0-x-x-0-x-0-0--x?-2-x-x-2-x-2-2--2-2-2-2-2-2-2-2|
B|-2-x-x-2-x-2-2--0?-2-x-x-2-x-2-2--4-4-5-5-5-4-4-4|
G|-2-x-x-2-x-2-2--1?-2-x-x-2-x-2-2--4-4-4-4-4-4-4-4|
D|-2-x-x-2-x-2-2--2?-4-x-x-4-x-4-4--4-4?4-4-4-4-4-4|
A|-x-x-x-x-x-x-x--2--4-x-x-4-x-4-4--2-2-2-2-2-2-2-2|
E|-x-x-x-x-x-x-x--0?-2-x-x-2-x-2-2--2-2-2-2-2-2-2-2|

Final:

e|-----0---------0---------------------5---------|
B|---0-0---4-----4------------6--8--6----8-------|
G|-1-------4---4--------6---6--------------------|
D|-2-------4----------6--------------------------|
A|-2-------2--------4----------------------------|
E|-0---------------------------------------------|

e|-8-8-8--6-6-6-6--5-5-5-5-5---------------------|
B|-5-5-5--5-5-5-5--5-5-5-5-5---------------------|
G|-5-5-5--5-5-5-5--5-5-5-5-5---------------------|
D|-----------------------------------------------|
A|-----------------------------------------------|
E|-----------------------------------------------|
Suggest correction
Give kudos to tab author, rate the tab!
1 2 3 4 5
comments
print report bad tab
guest
You may want to rate the tab now too:
select rating
Wanna post a correction for this tab? Suggest correction