Oops, an error
Loading. Please wait.

Eres Mi Religión Bass Tab

version 1
version 1

Whole song

Interactive

172 views 1 this week
no commentswrite comment
1 2 3 4 5
3 more votes to show rating
add to favorites
launch autoscroll
font size
0
reset
guitar tuner
×
Best way to learn
"Eres Mi Religión"
Autoscroll
slow
fast
+/-
esc
set tempo
stop
Intro ('Iba sin luz, iba sin sol...')
G|---------------------11-13-------|---------------------11--13--11-----|
D|---11---13-9------11-------------|---11---13-9------11------------14~-|
A|-9-------------------------------|-9----------------------------------|
E|----------------12-----------4/5-|----------------12------------------|

Verso ('Ay amor, apareciste en mi vida...')
G|------|-------------------------------------|----------------------------------|
D|------|-------------------------------------|----------------------------------|
A|------|--------0-22-222--2------------------|--------0-22-222--2---------------| x2
E|-12/2-|-22-222------------00-000-4-55-555-4-|-22-222------------00-000-000-000-|

Pre-Coro ('En un mundo de ilusion...')
G|--------------------------------------------------------------|
D|--------------------------------------------------------------|
A|-22-222---22-222---4~---2~---11111111--0-0-0000--222/14141414-|
E|---------2----------------------------------------------------|

Coro ('Ay amor, tu eres mi religion...')
G|---------------------------------------------------------------------------|
D|---------------------------------------------------------------------------|
A|---------------------22/44--444--4-------------------------22-222---22-222-|
E|-00-000--22/44--444---------------00-000-4-55-555-4-22-222---------2-------|

[Verso] x2
[Coro]  x2

Final
G|---------------------------------------|--------------------1---------------------------|
D|-----------2-2-2222--1-1-1111----------|-----------222-22-4---2---111-------1-----------|
A|-22222-00----------------------4-4-444-|-22222-00-------------------------2----4-4-4444-|
E|---------------------------------------|------------------------------444---------------|
                     x2

G|---------------------------------------------------|
D|-----------2-2-222---2---1-1-111---1---------------|
A|-22222-00----------2-------------1-----4-4-444---4-| hasta acabar la cancion
E|-----------------------------------------------4---|
Suggest correction
Give kudos to tab author, rate the tab!
1 2 3 4 5
comments
print report bad tab
guest
You may want to rate the tab now too:
select rating
Wanna post a correction for this tab? Suggest correction