Oops, an error
Loading. Please wait.

Eres Mi Religión Bass Tab

version 2
version 2

Whole song

Interactive

99 views 1 this week
no commentswrite comment
1 2 3 4 5
3 more votes to show rating
add to favorites
launch autoscroll
font size
0
reset
guitar tuner
×
Best way to learn
"Eres Mi Religión"
Autoscroll
slow
fast
+/-
esc
set tempo
stop
El bajo entra recien en la 4ta vuelta del canto, creo:
A)
    F#m       B          E      A (1º vez)E (2º vez)
G|------11-|-----|-----9s13-----|--------|-----9s13-|
D|---11----|-9---|---9------4-6-|-7--7-6-|---9------|
A|-9-------|-----|-7------------|--------|-7--------|
E|---------|---7-|--------------|--------|----------| x4

B)

      B            B      C#m/B          F#
G|-----------|-----------|------|------------------|
D|-----------|-----------|------|------------------|
A|-2-2---2-2-|-2-2---2-2-|-4--2-|------------------|
E|-----2-----|-----2-----|------|-2-2-2-2--2-2-2-2-|

          A               B
G|------------------|-----------|
D|------------------|------4--4-|
A|-0-0-0-0--0-0-0-0-|-2--2------|
E|------------------|-----------|

Estribillo:

     E       G#m      C#m       E7      A/G#m      F#m
G|--------|--------|--------|--------|----------|--------|
D|--------|--------|--------|--------|----------|--------|
A|--------|--------|-4--4-4-|-7--7-7-|----------|--------|
E|-0--0-0-|-4--4-4-|--------|--------|-5--5-5-4-|-2--2-2-|

     B        B
G|--------|--------|
D|--------|--------|
A|-2--2-2-|-2--2-2-|
E|--------|--------|
-----------------------------------------------
Bis Intro: en la intro se pueden hacer los tonos agudos de los acordes:
E B9 C#m C#m
-----------------------------------------------
Bis Canto x4 - Bis Estribillo x2 - Bis Intro
-----------------------------------------------
Final:

G|-----|-----|-----|-----|
D|-----|-----|-----|-----|
A|--7--|--6--|--4--|--2--|
E|-----|-----|-----|-----| x2

    E
G|-----|
D|-----|
A|--7--|
E|-----|
-----------------------------------------------
Si tenés alguna duda y/o pregunta, escribime a ejpolo@
Suggest correction
Give kudos to tab author, rate the tab!
1 2 3 4 5
comments
print report bad tab
guest
You may want to rate the tab now too:
select rating
Wanna post a correction for this tab? Suggest correction