Oops, an error
Loading. Please wait.

Estoy Agotado Bass Tab

55 views 3 this week
no commentswrite comment
1 2 3 4 5
3 more votes to show rating
add to favorites
launch autoscroll
font size
0
reset
guitar tuner
×
Best way to learn
"Estoy Agotado"
Autoscroll
slow
fast
+/-
esc
set tempo
stop
Verso 1 ('Siento que me voy a deshacer...')
G|------|---------------------------------------------------------|
D|------|---------------------------------------------------------|
A|------|---------2----------2---------------10---------------10--| x2
E|-3/7--|-3-3-333----3-3-333----12-12-121212-----12-12-121212-----|

Pre-Coro ('Pero en esta vida...')
G|--------------------------------------------|
D|--------------------------------------------|
A|-10-10-10101010---3-3-3333------------------|
E|-----------------------------33333---33333--|

G|--------------------------------------------|
D|--------------------------------------------|
A|-10-10-10101010---3-3-3333------------------|
E|-----------------------------3-3-3-3-3-3-3--|

Coro ('Estoy agotado...')
G|----------------------------|
D|----5-4----5-4----5-4-------|
A|-7------5------3------5--7--| x4
E|----------------------------|

Pos-Coro (Empieza antes de que diga 'de la escuela me expulsaron...')
G|-------------------------|
D|-------------------------|
A|-------------------------|
E|-3--33--3--33--3--33--3--|

Verso 2 ('Ahora si no se que hacer...')
G|-------|---------------------------------------------------------|
D|-------|---------------------------------------------------------|
A|-------|--------------10---------------10----------2----------2--| x3 y medio
E|-3/12--|-12-12-121212-----12-12-121212-----3-3-333----3-3-333----|

[Pre-Coro]
[Coro] x10

G|--------------------------------------------------------|
D|--------------------------------------------------------|
A|-5-6-7/1---5-66-777/1---7---7/1--3-3-3---5-5-5-5---5-6--|
E|--------------------------------------------------------|

(Coro) Hasta un poco antes de acabar la cancion (3:21)
Suggest correction
Give kudos to tab author, rate the tab!
1 2 3 4 5
comments
print report bad tab
guest
You may want to rate the tab now too:
select rating
Wanna post a correction for this tab? Suggest correction