Oops, an error
Loading. Please wait.

Estoy Agotado Tab

51 views 6 this week
no commentswrite comment
1 2 3 4 5
3 more votes to show rating
add to favorites
launch autoscroll
font size
0
reset
how to read this tab
guitar tuner
×
Best way to learn
"Estoy Agotado"
Autoscroll
slow
fast
+/-
esc
set tempo
stop
Bueno, la tablatura de esta rola bien movida aqui esta, cabe mencionar
que en el intro no se si le puse palm mutes de mas o mal acomodados
pero si oyen la cancion, sabran donde van, aqui esta:

Intro: (Tambien se puede rasguear rapidamente, abajo, abajo, abajo, arriba, abajo, arriba)
 
        G                                                          E
1. ---3--3--x--x--3--x--3--3--x--3--3--x--x---0--0--x--x--0--x--0--0--x--0--0--x--x----
2. ---3--3--x--x--3--x--3--3--x--3--3--x--x---0--0--x--x--0--x--0--0--x--0--0--x--x----
3. ---4--4--x--x--4--x--4--4--x--4--4--x--x---1--1--x--x--1--x--1--1--x--1--1--x--x----
4. ---5--5--x--x--5--x--5--5--x--5--5--x--x---2--2--x--x--2--x--2--2--x--2--2--x--x----
5. ---5--5--x--x--5--x--5--5--x--5--5--x--x---2--2--x--x--2--x--2--2--x--2--2--x--x----    
6. ---3--3--x--x--3--x--3--3--x--3--3--x--x---0--0--x--x--0--x--0--0--x--0--0--x--x----
  ...se toca durante las estrofas.


G
El sol ya esta saliendo,
                   Em
y yo apenas voy llegando,
G
y hace varios dias que el reventon
             Em     E7
no se ha acabado, yeaahhh,
G   
siento que me voy a deshacer,
                    Em
me encuentro muy cansado,
G
las presiones me agobian
                           Em
ahora siento que estoy tronando. 
 
G                C             Em
Pero en esta vida, solo vives una vez,
G                     C                D
me voy de reventado, de cabeza y al rebes, ohhhh.


CORO:
D         G
Estoy agotado,
Em  D       G
estoy reventado,
Em            D
estoy tan agotado,
E7               G
pero no puedo parar.

G
De la escuela me expulsaron,
                     Em
ahora si no se que hacer,
G
y mi nena me ha dejado
                        Em       E7
por un falso hippie fracasado, ufffff,
G
los colegas del trabajo,
                       Em
me hacen la  vida imposible,
G
y la señora de los depa
                          Em
me ha subido ya la renta triple.

G                C             Em
Pero en esta vida, solo vives una vez,
G                    C                 D
me voy de reventado, de cabeza y al rebes, ohhhh.

D         G
Estoy agotado,
Em  D       G
estoy reventado,
Em            D
estoy tan agotado,
E7               G
pero no puedo parar.

D         G
Estoy agotado,
Em  D       G
estoy reventado,
Em            D
estoy tan agotado,
E7               G
pero no puedo parar.


SOLO:

1. --------------------------------9b----------
2. --15-12-9----12b----9-11p9----9-----7/5-----
3. ----------11----------------9---------------
4. --------------------------------------------
5. --------------------------------------------
6. --------------------------------------------

1. ----7-9-7\5-7-9b-----7b-5b--5-7-5-------12b---
2. --9--------------7-9--------------7-5b--------
3. ----------------------------------------------
4. ----------------------------------------------
5. ----------------------------------------------
6. ----------------------------------------------

1. ---3--3--x--x--3--x--3--3--x--3--3--x--x---0--0--x--x--0--x--0--0--x--0--0--x--x----
2. ---3--3--x--x--3--x--3--3--x--3--3--x--x---0--0--x--x--0--x--0--0--x--0--0--x--x----
3. ---4--4--x--x--4--x--4--4--x--4--4--x--x---1--1--x--x--1--x--1--1--x--1--1--x--x----
4. ---5--5--x--x--5--x--5--5--x--5--5--x--x---2--2--x--x--2--x--2--2--x--2--2--x--x----
5. ---5--5--x--x--5--x--5--5--x--5--5--x--x---2--2--x--x--2--x--2--2--x--2--2--x--x----
6. ---3--3--x--x--3--x--3--3--x--3--3--x--x---0--0--x--x--0--x--0--0--x--0--0--x--x----

D         G
Estoy agotado,
Em  D       G
estoy reventado,
Em            D
estoy tan agotado,
E7               G
pero no puedo parar.

Em       D        G
Estoy, estoy, agotado,
Em       D          G
estoy, estoy, reventado,
Em       D        G
estoy, estoy, agotado,
Em       D          G 
estoy, estoy, reventado.


Buena rola, si no le entendieron o desean mandar un virus a alguien,
pues ahi esta mi humilde correo con los brazos abiertos esperando
una pregunta, duda, o por lo menos una mentada. Suerte!!
Suggest correction
Give kudos to tab author, rate the tab!
1 2 3 4 5
comments
print report bad tab
guest
You may want to rate the tab now too:
select rating
Wanna post a correction for this tab? Suggest correction