Oops, an error
Loading. Please wait.

Falta Amor Bass

version 1
version 1

Whole song

Interactive

by Maná
58 views 1 this week
no commentswrite comment
1 2 3 4 5
3 more votes to show rating
add to favorites
launch autoscroll
font size
0
reset
guitar tuner
×
Best way to learn
"Falta Amor"
Autoscroll
slow
fast
+/-
esc
set tempo
stop
Intro y Verso :

g -----------------|--------------|-------------|
d -----------------|--------------|-------------|
a -4--4-----2-2-4--|-4-----2-2-4--|-4-----2-2-4-|
e ------4-4--------|---4-4--------|---4-4-------|

g ---------------------||
d ---------------------||
a -4-----2-2-4--4-4----||
e ---4-4---------------||

se acompaña con este riff todo el verso y la intro

Coro y Cambios :

1er cambio

g ----------------|-------------|------------------||
d ----------------|-------------|------------------||
a -4-4-----2-2-4--|-4-----2-2-4-|------------------||
e -----4-4--------|---4-4-------|-5-5-5-5-7-7-7-7--||

2do cambio

g ----------------|------------|------------------
d ----------------|------------|------------------
a -4-4-----2-2-4--|-4-----2-2--|------------------
e -----4-4--------|---4-4------|-5-5-5-5-7-7-7-7--

g ---------------------------||
d ---------------------------||
a -7-7-7-7-6-6-6-6-4-4-4-4---||
e ---------------------------||

3er cambio

g -----------------|---------------|------------|
d -----------------|---------------|------------|
a -----------------|-4-4-----2-2-4-|-4-----2-2--|
e -5-5-5-5-7-7-7-7-|-----4-4-------|---4-4------|

   falta amor
g -------------------||
d -------------------||
a -------------------||
e -5-5-5-5-4-4-4-4---||

comentarios , agradecimientos , mentadas 
o simplemente saludos 
escribanme
gracias
Suggest correction
Give kudos to tab author, rate the tab!
1 2 3 4 5
comments
print report bad tab
guest
You may want to rate the tab now too:
select rating
Wanna post a correction for this tab? Suggest correction