Oops, an error
Loading. Please wait.

Falta Amor Tab

version 3
version 3

Whole song

Interactive

by Maná
19 views 1 this week
no commentswrite comment
1 2 3 4 5
3 more votes to show rating
add to favorites
launch autoscroll
font size
0
reset
how to read this tab
guitar tuner
×
Best way to learn
"Falta Amor"
Autoscroll
slow
fast
+/-
esc
set tempo
stop
este es el intro de esta rola
no les voy a poner las notas por que
creo que yo se la saben

e ------------------------------
b ------------------------------
g ------------------------------
d ------------------------------
a --4--4----------4--4-7-6------
e -------4-4--7-7----------7----

este es uno de los areglos que le hacen

e -----------------------------------    / (deslizarse
b -----9-9------9--------------------      hasta el
g -/13-----/13----11-9----11-9-------      número de
d ---------------------11-------11---      traste)

este es el solo no lo saque muy bien por que 
es muy dificil pero esta la escala pentatotica
se pueden basar de eso me dio hueva escribir todo
asi que de esto de pueden basarahi les va

e -------9--------9------------------------------------
b -----9---12/14----12-9-------------------------------
g -/13-------------------11-9---11-9-------------------
d ----------------------------9-11---11-9--------------
a ----------------------------------------11-10-9------
e ------------------------------------------------12-9-

e -9--9-11-12-9-11----9-----------------------------------------------
b -----------------12---12-9----12-9------9---------------------------
g ---------------------------11------11-9---11-9----11-9--------------
d -----------------------------------------------11------11-9-11------
a --------------------------------------------------------------------
e --------------------------------------------------------------------
Suggest correction
Give kudos to tab author, rate the tab!
1 2 3 4 5
comments
print report bad tab
guest
You may want to rate the tab now too:
select rating
Wanna post a correction for this tab? Suggest correction