Oops, an error
Loading. Please wait.

Falta Amor (Unplugged) Bass Tab

68 views 1 this week
no commentswrite comment
1 2 3 4 5
3 more votes to show rating
add to favorites
launch autoscroll
font size
0
reset
guitar tuner
Autoscroll
slow
fast
+/-
esc
set tempo
stop
Help us to improve Ultimate-Guitar.com Take our survey!
×
Intro
          
G|------------------|-------------|---------------|-------------|
D|------------------|-------------|---------------|----2-1------|
A|-4---4-----2-2-4--|--4-----2-4--|--4-----2-2-4--|--4-----2-4--|
E|-------4-4--------|----4-4------|----4-4--------|-------------|


Verso 1

          
G|------------------|-------------|---------------|-------------|
D|------------------|-------------|---------------|----2-1------|
A|-4---4-----2-2-4--|--4-----2-4--|--4-----2-2-4--|--4-----2-4--|
E|-------4-4--------|----4-4------|----4-4--------|-------------|

Hoy ya la libró de comer... pobre niño de la calle...

         
G|-----------------|-------------|---------------|-------------|
D|-----------------|-------------|---------------|----2-1------|
A|----4-----2-2-4--|--4-----2-4--|--4-----2-2-4--|--4-----2-4--|
E|------4-4--------|----4-4------|----4-4--------|-------------|

pero hoy no la libró de dormir... bajo la banca de un parque...

          
G|-----------------|-------------|---------------|-------------|
D|-----------------|-------------|---------------|----2-1------|
A|----4-----2-2-4--|--4-----2-4--|--4-----2-2-4--|--4-----2-4--|
E|------4-4--------|----4-4------|----4-4--------|-------------|

no tiene padres ni tutores ni nadie que lo quiera...

             
G|-------------|-----|-----|--------------------|--------------|
D|-------------|-----|-----|--------------------|--------------|
A|----4-----2--|--0--|--2--|--4----4-----2-2-4--|--4------2-4--|
E|------4-4----|-----|-----|---------4-4--------|-----4-4------|

hormigas, moscas y ratones únicos compañeros...


Coro

          
G|-----------------|-------------|----------|-----------------|
D|-----------------|-------------|----------|-----------------|
A|----4-----2-2-4--|--4-----2-4--|--4-----2-|-----------------|
E|------4-4--------|----4-4------|----4-4---|-4-4-4-4-4-4-4-4-|

falta amor... mucho amor... falta amor... falta amor...
          
G|------------------|-------------|---------------|-------------|
D|------------------|-------------|---------------|-------------|
A|-4---4-----2-2-4--|--4-----2-4--|--4-----2-2-4--|-4-----2-4---|
E|-------4-4--------|----4-4------|----4-4--------|---4-4-------|


Verso 2
          
G|------------------|-------------|---------------|-------------|
D|------------------|-------------|---------------|-------------|
A|-4---4-----2-2-4--|--4-----2-4--|--4-----2-2-4--|-4-----2-4---|
E|-------4-4--------|----4-4------|----4-4--------|---4-4-------|

un pequeño de apenas 8 años va colgado del tranvía...

        
G|-----------------|-------------|---------------|-------------|
D|-----------------|-------------|---------------|-------------|
A|----4-----2-2-4--|--4-----2-4--|--4-----2-2-4--|-4-----2-4---|
E|------4-4--------|----4-4------|----4-4--------|---4-4-------|

a nadie le importa... a nadie le preocupa la caída...


G|-----------------|-------------|---------------|-------------|
D|-----------------|-------------|---------------|-------------|
A|----4-----2-2-4--|--4-----2-4--|--4-----2-2-4--|-4-----2-4---|
E|------4-4--------|----4-4------|----4-4--------|---4-4-------|

y es que le falta edad... o le sobra la soledad...

    
G|-------------|-----|-----|--------------------|--------------|
D|-------------|-----|-----|--------------------|--------------|
A|----4-----2--|--0--|--2--|--4----4-----2-2-4--|--4------2-4--|
E|------4-4----|-----|-----|---------4-4--------|-----4-4------|

pero el caso es que duerme estrechando la gran ciudad...


Coro

    
G|-----------------|-------------|----------|-----------------|
D|-----------------|-------------|----------|-----------------|
A|----4-----2-2-4--|--4-----2-4--|--4-----2-|-----------------|
E|------4-4--------|----4-4------|----4-4---|-4-4-4-4-4-4-4-4-|

falta amor... mucho amor... falta amor... falta amor...


G|-------------|-------------|-----------------|---------|
D|-------------|-------1-1---|-----------------|---------|
A|-------4-4---|-2---2-----2-|-4---4-----2-2-4-|-4-----2-|
E|-5---5-----5-|-------------|-------4-4-------|---4-4---|

como dejarles al olvido...


G|-------------|-------------|-------------|------------|
D|-------------|-------1-1---|-2---2-1---1-|------------|
A|-------4-4---|-2---2-----2-|-------------|-4---4-4-2--|
E|-5---5-----5-|-------------|-------------|------------|

como dejarles sin abrigo...


G|-------------|-------------|-----------------|---------|
D|-------------|-------1-1---|-----------------|---------|
A|-------4-4---|-2---2-----2-|-4---4-----2-2-4-|-4-----2-|
E|-5---5-----5-|-------------|-------4-4-------|---4-4---|

es imposible ignorarlos...


G|-------------|----------------------------------|
D|-------------|----------------------------------|
A|-------4-4---|----------------------------------|
E|-5---5-----5-|-4-4-4-4-4-4-4-4-4-4-4-(32 veces)-|

y a veces... falta amor... falta amor... falta amor... eh...


Durante el solo de guitarra:

                                                   
G|-----------------|-----------------|-----------------|---------|
D|-----------------|-----------------|-----------------|---------|
A|-----------------|-----------------|-4---4-----2-2-4-|-4-----2-| 
E|-2-2-2-2-2-2-2-2-|-5-5-5-5-5-5-5-5-|-------4-4-------|---4-4---|


G|-----------------|-----------------|-----------------|---------|
D|-----------------|-----------------|-----------------|---------|
A|-----------------|-----------------|-4---4-----2-2-4-|-4-----2-| 
E|-2-2-2-2-2-2-2-2-|-5-5-5-5-5-5-5-5-|-------4-4-------|---4-4---|


G|-----------------|-----------------|-----------------|---------|
D|-----------------|-----------------|-----------------|---------|
A|-----------------|-----------------|-4---4-----2-2-4-|-4-----2-| 
E|-2-2-2-2-2-2-2-2-|-5-5-5-5-5-5-5-5-|-------4-4-------|---4-4---|


G|-----------------|---------------------|-----------------|
D|-----------------|---------------------|-----------------|
A|-----------------|---------------------|-----------------| 
E|-2-2-2-2-2-2-2-2-|-5-5-5-5-5-5-5-5-5-5-|-4-4-4-4-4-4-4-4-|


Fin del solo 


G|------------------|-------------|---------------|-------------|
D|------------------|-------------|---------------|-------------|
A|-4---4-----2-2-4--|--4-----2-4--|--4-----2-2-4--|-4-----2-4---|
E|-------4-4--------|----4-4------|----4-4--------|---4-4-------|


Verso 3


G|------------------|-------------|---------------|-------------|
D|------------------|-------------|---------------|-------------|
A|-4---4-----2-2-4--|--4-----2-4--|--4-----2-2-4--|-4-----2-4---|
E|-------4-4--------|----4-4------|----4-4--------|---4-4-------|

el niño tiene un guardián... flaco fiel y cariñoso...


G|-----------------|-------------|---------------|-------------|
D|-----------------|-------------|---------------|-------------|
A|----4-----2-2-4--|--4-----2-4--|--4-----2-2-4--|-4-----2-4---|
E|------4-4--------|----4-4------|----4-4--------|---4-4-------|

un perro callejero escudero... llamado oso...


G|-----------------|-------------|---------------|-------------|
D|-----------------|-------------|---------------|-------------|
A|----4-----2-2-4--|--4-----2-4--|--4-----2-2-4--|-4-----2-4---|
E|------4-4--------|----4-4------|----4-4--------|---4-4-------|

no se quiere morir... no dejan de sufrir...


G|-------------|-----|-----|--------------------|--------------|
D|-------------|-----|-----|--------------------|--------------|
A|----4-----2--|--0--|--2--|--4----4-----2-2-4--|--4------2-4--|
E|------4-4----|-----|-----|---------4-4--------|-----4-4------|

pero juntos se la ingenian... se la rifan para sobrevivir...


Coro

    
G|----------------|-------------|----------|-----------------|
D|----------------|-------------|----------|-----------------|
A|---4-----2-2-4--|--4-----2-4--|--4-----2-|-----------------|
E|-----4-4--------|----4-4------|----4-4---|-4-4-4-4-4-4-4-4-|

falta amor... mucho amor... falta amor... falta amor...


G|-------------|-------------|-----------------|---------|
D|-------------|-------1-1---|-----------------|---------|
A|-------4-4---|-2---2-----2-|-4---4-----2-2-4-|-4-----2-|
E|-5---5-----5-|-------------|-------4-4-------|---4-4---|

como dejarles al olvido...


G|-------------|-------------|-------------|------------|
D|-------------|-------1-1---|-2---2-1---1-|------------|
A|-------4-4---|-2---2-----2-|-------------|-4---4-4-2--|
E|-5---5-----5-|-------------|-------------|------------|

como dejarles sin abrigo...


G|-------------|-------------|-----------------|---------|
D|-------------|-------1-1---|-----------------|---------|
A|-------4-4---|-2---2-----2-|-4---4-----2-2-4-|-4-----2-|
E|-5---5-----5-|-------------|-------4-4-------|---4-4---|

es imposible ignorarlos...


G|-------------|----------------------------------|
D|-------------|----------------------------------|
A|-------4-4---|----------------------------------|
E|-5---5-----5-|-4-4-4-4-4-4-4-4-4-4-4-(32 veces)-|

y a veces... falta amor... falta amor... falta amor... eh...


G|-----------------|-------------|---------------|-------------|
D|-----------------|-------------|---------------|-------------|
A|----4-----2-2-4--|--4-----2-4--|--4-----2-2-4--|-4-----2-4---|
E|------4-4--------|----4-4------|----4-4--------|---4-4-------|


G|-----------------|-------------|---------------|-------------|
D|-----------------|-------------|---------------|-------------|
A|----4-----2-2-4--|--4-----2-4--|--4-----2-2-4--|-4-----2-4---|
E|------4-4--------|----4-4------|----4-4--------|---4-4-------|


El final:


G|-------------|-----------|
D|-------------|-----------|
A|-4---4-2-2-4-|-4-4-2-2-4-| (X3)
E|-------------|-----------|


Y a la cuarta termina así:


G|-------------|--------------|
D|-------------|------2-1-----|
A|-4---4-2-2-4-|-4--4-----2-4-|
E|-------------|--------------|


FIN

Saludos a los miembros de la banda: Gustavo, Oscar (1ra y 2da guitarra); Fernando, Johnny (teclado y batería); Lucho y Miguel (voces)
Suggest correction
Give kudos to tab author, rate the tab!
1 2 3 4 5
comments
print report bad tab
guest
You may want to rate the tab now too:
select rating
Wanna post a correction for this tab? Suggest correction