Oops, an error
Loading. Please wait.

Gitana Tab

version 3
version 3

Whole song

22 views 1 this week
no commentswrite comment
1 2 3 4 5
3 more votes to show rating
add to favorites
launch autoscroll
font size
0
reset
how to read this tab
guitar tuner
Autoscroll
slow
fast
+/-
esc
set tempo
stop
Help us to improve Ultimate-Guitar.com Take our survey!
×
HOLA!!!!!!!!!! QUETAL? ME LLAMO LEANDRO Y ENTRE A ESTA PAGINA
CON EL MOTIVO
DE DEGARLES TODAS LAS ROLAS DE MANÁ EN FORMA CORRECTA Y COMPLETAS PARA
QUE LAS PUEDAN TOCAR COMO DEBE SER LA PRIMER CANCIÓN ES ?gitana? DEL CD
?falta amor? Y VOY A PONER TODAS LAS DEL CD Y TODAS LAS ROLAS
DE LOS OTROS CD
DE MANÁ EN ESTA PÁGINA.
==================================================================
 BUENO SE LAS VOY A DEJAR BIEN CONPLETA CON LAS LETRA
LOS ACORDES Y EL SOLO.
  LO QUE SIGUE ES LA VERDADERA FORMA DE TOCARLA POR QUE LA
OTRA NO SONABA NADA BIEN TENIA LOS ACORDES MUY BAJOS Y EN
VERDAD LAS VERDADERA FORMA ES ESTA:
===============================================================
Afinación:4/40
Interprete:FHER/ALEX
Disco:Falta amor
Año:1990
=============================================================
         LETRAS Y ACORDES
F#m               C#     D
-Soñé que la perdía es verdad
   Bm          C#           F#m
Donde estas chiquita donde estas?
             C#
fui con la gitana
        D       Bm         E
a preguntarle donde se a metido.


-no,no,no quiero fingir     (ACA SE ACOMPAÑA CON LOS MISMOS ACORDES
me siento como morir,salveme   DEL VERSO ANTERIOR SOLO CAMBIA AL FINAL)
busquela en su bola de cristal
o déme alguna pista sensorial
                          D
o dígame el hechizo para hallarla.

   *(este es el coro)
 F#m      E        Bm   D
-Cuenta gitana por favor
       A          D   E
donde busco a mi corazón.
     F#m       E        Bm  D
Sus palmas me dicen la razón
    A        D      E
O cuentan de mi dolor.

-Y ya lo sé
por pobre me desprecias no hay razón (ACA TAMBIEN SE HACE CON LOS
yo te brindo un gran corazón           ACORDES DEL VERSO)
si puedes escucharme o mi amor
dame una oportunidad.
-Oh,oh,oh,oh,oh hay amor oh,oh nara,na,nara
yo te doy sinceridad
yo te doy felicidad
Vuelve ya eres una luna impenetrable.

 *CORO (X2)
================================================================
  -BUENO LLEGO LA PARTE DEL SOLO ESPERO QUE LO ENTIENDAN
PORQUE ME COSTO SACARLO PERO PUDE Y SUENA MUY PARECIDO.
==============================================================
 SOLO:
1. ------3-5-5/7-7h8h10--8p7-5-7-8-10-7-3-5---------------|
2. -7-3--------------------------------------3h5p3--------|
3. ---------------------------------------------------3---|
4. ------------------------------------------------5------|
5. -------------------------------------------------------|
6. -------------------------------------------------------|


1. ----------------------------------3-5-2-3p2---9-7-5-----|
2. ------------------------4-6-5-6-5------------10-9-7-----|
3. ----------3/5--5h6---5-7--------------------------------|
4. ------3-5---------5-7-----------------------------------|
5. --3-5---------------------------------------------------|
6. --------------------------------------------------------|


1. -9-9-9-7-5-7-7/9-9-7-5-----5-7-9---------------------1-2-3-2--------|
2. -----------------------9-7-----------------13-11-9--3--------3-1----|
3. -----------------------------------15-12-10----------------------3v-|
4. --------------------------------------------------------------------|
5. --------------------------------------------------------------------|
6. --------------------------------------------------------------------|


1. ----------------------7h8-7-10-12---11-11-7-11---11-11-7-11v--------|
2. -----5-7---9-11-9-----------------5------------5--------------------|
3. ---7-----7----------9-----------------------------------------------|
4. --------------------------------------------------------------------|
5. --------------------------------------------------------------------|
6. --------------------------------------------------------------------|
    (BUENO ESTO FUE EL SOLO DE ESTA CANCIÓN COSTO PERO PUDE)

(MIENTRAS SE TOCA EL SOLO LA OTRA GUITARRA LO ACOMPAÑA CON LOS
ACORDES DEL VERSO)
==============================================================
AHORA ESTO:
   D                             E
  -Quizas la luna se caiga en pedazos
   C#m                        F#m  E
Quizas la muerte me pise los pasos
     D                           E
por pobre estoy sufriendo tus rechazos
   C#m                      D            E
quizas una palabra que no piense mas vivir.

*CORO

AHORA ESTO HASTA EL FINAL:

-Oh,no,no devuelvanlo oh,no,no devuélvanlo
oh mi corazón lara la la lalá    (ESTO SE REPITE HASTA EL FINAL)
(ESTA PARTE SE ACOMPAÑA CON LOS ACORDES DEL CORO)
==================================================================
-BUENO ESTO FUE TODO AMIGOS ESPERO QUE LO ENTIENDAN NO
TIENE DIFICULTAD SOLO TIENEN QUE PRACTICAR EL SOLO CON PASIENCIA.
  SI TIENEN ALGUNA DUDA COMENTARIO O CORREPCION A MI MAIL
Leandro_transcripciones@
FUE UN GUSTO.   LEANDRO 9/01/06 15:28 CHAU...
Suggest correction
Give kudos to tab author, rate the tab!
1 2 3 4 5
comments
print report bad tab
guest
You may want to rate the tab now too:
select rating
Wanna post a correction for this tab? Suggest correction