Oops, an error
Loading. Please wait.

Hasta Que Te Conocí Tab

version 2
version 2

Whole song

Interactive

193 views 1 this week
no commentswrite comment
1 2 3 4 5
2 more votes to show rating
add to favorites
launch autoscroll
font size
0
reset
how to read this tab
guitar tuner
×
Best way to learn
"Hasta Que Te Conocí"
Autoscroll
slow
fast
+/-
esc
set tempo
stop
Intro

Acustica


E|---------5---------5---------5----------5-------------3------
B|-------3---3-----3---3-----3---3------3---3----------3-------
G|----------------------------------------------------3--------
D|---------------------------------------------------5---------
A|----5----------4--------3----------2--------------5----------
E|-------------------------------------------------3----------


E|----5-6-5---------------------------------------------------
B|--8--------8--6-6--5-5---5h6p5------------------------------
G|--------------------------------6---------------------------
D|------------------------------------------------------------
A|------------------------------------------------------------
E|------------------------------------------------------------


Este Va Despues del segundo Coro.

E|------------------------------------------------------------
B|-------------------------3----------------------------------
G|--2-2-3---2-2-3--2-2-3-2----2-2-3-0-------------------------
D|------------------------------------------------------------
A|------------------------------------------------------------
E|------------------------------------------------------------


E|------------------------------------------------------------
B|-----------------------------5----------3-------------------
G|---2-2-3---2-2-3-----2-2-3-2------2-2-2---------------------
D|------------------------------------------------------------
A|------------------------------------------------------------    x4
E|------------------------------------------------------------


Este es el solo en electrica

E|--5-5-5-5-5-5-----5-5------55-6------------3-3-----3-3------
B|---------------6------6-6-------8-----5-5-----5-5--------5-5-
G|--------------------------------------------------------------
D|--------------------------------------------------------------
A|--------------------------------------------------------------
E|--------------------------------------------------------------


E|------6-5-------------------------
B|--3-3-----------------------------
G|----------------------------------
D|----------------------------------
A|----------------------------------
E|----------------------------------


Este va al final.


E|------------10----10-10-----10--10--12-12-------------------
B|-----10-10-----10-------------13----------------------------
G|------------------------------------------------------------
D|------------------------------------------------------------
A|------------------------------------------------------------
E|------------------------------------------------------------


E|------12-12-------12-12-----15-13---12h13p12----------------
B|---10-------10-10----------------------------15-------------
G|------------------------------------------------------------
D|------------------------------------------------------------
A|------------------------------------------------------------
E|------------------------------------------------------------


Esta es mi primera transcripción espero que les  guste
Mi correo por si tienen algún comentario : willberrc@
Suggest correction
Give kudos to tab author, rate the tab!
1 2 3 4 5
comments
print report bad tab
guest
You may want to rate the tab now too:
select rating
Wanna post a correction for this tab? Suggest correction